Billy Talent - Prisoners Of Today Chords & Tabs

 

Prisoners Of Today Chords & Tabs

Billy Talent Chords & Tabs

Version: 3 Type: Tab 0 ratings
1 star 2 stars 3 stars 4 stars 5 stars
comments

Prisoners Of Today Tab

Drop D Tuning

E|-------------------------------------------------------|
B|-------------------------------------------------------|
G|----8---7----5------5--5--5--7----5----3------3--3--3--|
D|--5--5-5--5-5--5-5-8--7--5--3--3-3--3-3--3-3-5--5--3---|
A|-------------------------------------------------------|
D|-------------------------------------------------------|

E|-------------------------------------------------------|
B|-------------------------------------------------------|
G|--2-2-2-5-5-2-5-5-2-5-5-2-5^-2-2-2-5-5-2-5-5-2-5-5-2-5-|
D|--0-0-0-0-0-0-0-0-0-0-0-0-0--3-3-3-3-3-3-3-3-3-3-3-3-3-|
A|-------------------------------------------------------|
D|-------------------------------------------------------|

--

Guitar One
E|------------------------------------------------------------------|
B|------------------------------------------------------------------|
G|--8-8-8-7-7-7-5-5-5-3-3-3-2-2-0-0-7-7-7-5-5-5-3-3-3-2-2-2-0-0-3-3-|
D|------------------------------------------------------------------|
A|------------------------------------------------------------------|
D|------------------------------------------------------------------|
[ Tab from: http://www.guitartabs.cc/tabs/b/billy_talent/prisoners_of_today_tab_ver_3.html ]
Second Guitar
E|------------------------------------------------------------------|
B|--5-5-5-5-5-5-5-5-5-5-5-5-5-5-5-5-3-3-3-3-3-3-3-3-3-3-3-3-3-3-3-3-|
G|--5-5-5-5-5-5-5-5-5-5-5-5-5-5-5-5-3-3-3-3-3-3-3-3-3-3-3-3-3-3-3-3-|
D|--5-5-5-5-5-5-5-5-5-5-5-5-5-5-5-5-3-3-3-3-3-3-3-3-3-3-3-3-3-3-3-3-|
A|------------------------------------------------------------------|
D|------------------------------------------------------------------|

Guitar One
E|---------------------------------------------------------|
B|---------------------------------------------------------|
G|--2-2-2-5-5-2-5-5-2-5-5-2-5^--2-2-2-5-5-2-5-5-2-5-5-2-5^-|
D|---------------------------------------------------------|
A|---------------------------------------------------------|
D|---------------------------------------------------------|

Second Guitar
E|------------------------------------------------------------------|
B|--0-0-0-0-0-0-0-0-0-0-0-0-0-0-0-0-3-3-3-3-3-3-3-3-3-3-3-3-3-3-3-3-|
G|--0-0-0-0-0-0-0-0-0-0-0-0-0-0-0-0-3-3-3-3-3-3-3-3-3-3-3-3-3-3-3-3-|
D|--0-0-0-0-0-0-0-0-0-0-0-0-0-0-0-0-3-3-3-3-3-3-3-3-3-3-3-3-3-3-3-3-|
A|------------------------------------------------------------------|
D|------------------------------------------------------------------|
Comments