Billy Talent - Nothing To Lose Chords & Tabs

 

Nothing To Lose Chords & Tabs

Billy Talent Chords & Tabs

Version: 3 Type: Tab 0 ratings
1 star 2 stars 3 stars 4 stars 5 stars
comments

Nothing To Lose Tab

   
Tuning: E B G  D A D

Introduction

E----------------------------------------------------0------0----------------------0--|
B---------0---------0---------0-------0---------0----0--------------4---------0-------|
G-------6--------8---------4--------4--------0---------0--------------------0---------|
D-----5--------7---------3--------3------------------------------4-------0------------|
A---7--------9---------5--------5--------3-----------------3-2------------------------|
D-------------------------------------------------------------------------------------|

1ST Verse

E----------------------------------------------------0------0----------------------0--|
B---------0---------0---------0-------0---------0----0--------------4---------0-------|
G-------6--------8---------4--------4--------0---------0--------------------0---------|
D-----5--------7---------3--------3------------------------------4-------0------------|
A---7--------9---------5--------5--------3-----------------3-2------------------------|
D-------------------------------------------------------------------------------------|

E----------------------------------------------------0------0----------------------0--|
B---------0---------0---------0-------0---------0----0--------------4---------0-------|
G-------6--------8---------4--------4--------0---------0--------------------0---------|
D-----5--------7---------3--------3------------------------------4-------0------------|
A---7--------9---------5--------5--------3-----------------3-2------------------------|
D-------------------------------------------------------------------------------------|

E----------------------------------------------------0------0----------------------0--|
B---------0---------0---------0-------0---------0----0--------------4---------0-------|
G-------6--------8---------4--------4--------0---------0--------------------0---------|
D-----5--------7---------3--------3------------------------------4-------0------------|
A---7--------9---------5--------5--------3-----------------3-2------------------------|
D-------------------------------------------------------------------------------------|

1ST Chorus

E-----------------------------------------------------------------------------------------------------|
B---------5--------5--------9--------9--------7--------7--------4--------4--------7--------7-------9--|
G-------0--------0--------0--------0--------0--------0--------0--------0--------0--------0-------0----|
D-----5--------5--------9--------9--------7--------7--------4--------4--------7--------7-------9------|
A---3--------3---------7--------7--------5--------5--------2--------2--------5--------5-------7-------|
D-----------------------------------------------------------------------------------------------------|

E--------------------------------------|
B---------9--------12------12------10--|
G-------0--------0--------0---------0--|
D-----9--------12-------12--------10---|
A---7--------10-------10-----------9---|
D--------------------------------------|

2ND Verse

E----------------------------------------------------0------0----------------------0--|
B---------0---------0---------0-------0---------0----0--------------4---------0-------|
G-------6--------8---------4--------4--------0---------0--------------------0---------|
D-----5--------7---------3--------3------------------------------4-------0------------|
A---7--------9---------5--------5--------3-----------------3-2------------------------|
D-------------------------------------------------------------------------------------|

E----------------------------------------------------0------0----------------------0--|
B---------0---------0---------0-------0---------0----0--------------4---------0-------|
G-------6--------8---------4--------4--------0---------0--------------------0---------|
D-----5--------7---------3--------3------------------------------4-------0------------|
A---7--------9---------5--------5--------3-----------------3-2------------------------|
D-------------------------------------------------------------------------------------|

E----------------------------------------------------0------0----------------------0--|
B---------0---------0---------0-------0---------0----0--------------4---------0-------|
G-------6--------8---------4--------4--------0---------0--------------------0---------|
D-----5--------7---------3--------3------------------------------4-------0------------|
A---7--------9---------5--------5--------3-----------------3-2------------------------|
D-------------------------------------------------------------------------------------|

E----------------------------------------------------0------0----------------------0--|
B---------0---------0---------0-------0---------0----0--------------4---------0-------|
G-------6--------8---------4--------4--------0---------0--------------------0---------|
D-----5--------7---------3--------3------------------------------4-------0------------|
A---7--------9---------5--------5--------3-----------------3-2------------------------|
D-------------------------------------------------------------------------------------|

E----------------------------------------------------0------0----------------------0--|
B---------0---------0---------0-------0---------0----0--------------4---------0-------|
G-------6--------8---------4--------4--------0---------0--------------------0---------|
D-----5--------7---------3--------3------------------------------4-------0------------|
A---7--------9---------5--------5--------3-----------------3-2------------------------|
D-------------------------------------------------------------------------------------|

E----------------------------------------------------0------0----------------------0--|
B---------0---------0---------0-------0---------0----0--------------4---------0-------|
G-------6--------8---------4--------4--------0---------0--------------------0---------|
D-----5--------7---------3--------3------------------------------4-------0------------|
A---7--------9---------5--------5--------3-----------------3-2------------------------|
D-------------------------------------------------------------------------------------|

2ND Chorus

E------------------------------------------------------------------------------------|
B---5-5-5-5-5-5-5-5-9-9-9-9-9-9-9-9-7-7-7-7-7-7-7-7-4-4-4-4-4-4-4-4-7-7-7-7-7-7-7-7--|
G---0-0-0-0-0-0-0-0-0-0-0-0-0-0-0-0-0-0-0-0-0-0-0-0-0-0-0-0-0-0-0-0-0-0-0-0-0-0-0-0--|
D---5-5-5-5-5-5-5-5-9-9-9-9-9-9-9-9-7-7-7-7-7-7-7-7-4-4-4-4-4-4-4-4-7-7-7-7-7-7-7-7--|
A---3-3-3-3-3-3-3-3-7-7-7-7-7-7-7-7-5-5-5-5-5-5-5-5-2-2-2-2-2-2-2-2-5-5-5-5-5-5-5-5--|
D------------------------------------------------------------------------------------|

E--------------------------------------------------------------------------|
B---9-9-9-9-9-9-9-9-12-12-12-12-12-12-12-12-10-10-10-10-10-10-10-10--------|
G---0-0-0-0-0-0-0-0--0--0--0--0--0--0--0--0--0--0--0--0--0--0--0--0--0--0--|
D---9-9-9-9-9-9-9-9-12-12-12-12-12-12-12-12-10-10-10-10-10-10-10-10--------|
A---7-7-7-7-7-7-7-7-10-10-10-10-10-10-10-10--9--9--9--9--9--9--9--9--9-----|
D--------------------------------------------------------------------------|

E------------------------------------------------------------------------------------|
B---5-5-5-5-5-5-5-5-9-9-9-9-9-9-9-9-7-7-7-7-7-7-7-7-4-4-4-4-4-4-4-4-7-7-7-7-7-7-7-7--|
G---0-0-0-0-0-0-0-0-0-0-0-0-0-0-0-0-0-0-0-0-0-0-0-0-0-0-0-0-0-0-0-0-0-0-0-0-0-0-0-0--|
D---5-5-5-5-5-5-5-5-9-9-9-9-9-9-9-9-7-7-7-7-7-7-7-7-4-4-4-4-4-4-4-4-7-7-7-7-7-7-7-7--|
A---3-3-3-3-3-3-3-3-7-7-7-7-7-7-7-7-5-5-5-5-5-5-5-5-2-2-2-2-2-2-2-2-5-5-5-5-5-5-5-5--|
D------------------------------------------------------------------------------------|
[ Tab from: http://www.guitartabs.cc/tabs/b/billy_talent/nothing_to_lose_tab_ver_3.html ]
E--------------------------------------------------------------------------|
B---9-9-9-9-9-9-9-9-12-12-12-12-12-12-12-12-10-10-10-10-10-10-10-10--------|
G---0-0-0-0-0-0-0-0--0--0--0--0--0--0--0--0--0--0--0--0--0--0--0--0--0--0--|
D---9-9-9-9-9-9-9-9-12-12-12-12-12-12-12-12-10-10-10-10-10-10-10-10--------|
A---7-7-7-7-7-7-7-7-10-10-10-10-10-10-10-10--9--9--9--9--9--9--9--9--9-----|
D--------------------------------------------------------------------------|

E------------------------------------------------------------------------------------|
B---5-5-5-5-5-5-5-5-9-9-9-9-9-9-9-9-7-7-7-7-7-7-7-7-4-4-4-4-4-4-4-4-7-7-7-7-7-7-7-7--|
G---0-0-0-0-0-0-0-0-0-0-0-0-0-0-0-0-0-0-0-0-0-0-0-0-0-0-0-0-0-0-0-0-0-0-0-0-0-0-0-0--|
D---5-5-5-5-5-5-5-5-9-9-9-9-9-9-9-9-7-7-7-7-7-7-7-7-4-4-4-4-4-4-4-4-7-7-7-7-7-7-7-7--|
A---3-3-3-3-3-3-3-3-7-7-7-7-7-7-7-7-5-5-5-5-5-5-5-5-2-2-2-2-2-2-2-2-5-5-5-5-5-5-5-5--|
D------------------------------------------------------------------------------------|

E--------------------------------------------------------------------------|
B---9-9-9-9-9-9-9-9-12-12-12-12-12-12-12-12-10-10-10-10-10-10-10-10--------|
G---0-0-0-0-0-0-0-0--0--0--0--0--0--0--0--0--0--0--0--0--0--0--0--0--0--0--|
D---9-9-9-9-9-9-9-9-12-12-12-12-12-12-12-12-10-10-10-10-10-10-10-10--------|
A---7-7-7-7-7-7-7-7-10-10-10-10-10-10-10-10--9--9--9--9--9--9--9--9--9-----|
D--------------------------------------------------------------------------|

3RD Verse

E----------------------------------------------------0------0----------------------0--|
B---------0---------0---------0-------0---------0----0--------------4---------0-------|
G-------6--------8---------4--------4--------0---------0--------------------0---------|
D-----5--------7---------3--------3------------------------------4-------0------------|
A---7--------9---------5--------5--------3-----------------3-2------------------------|
D-------------------------------------------------------------------------------------|

E----------------------------------------------------0------0----------------------0--|
B---------0---------0---------0-------0---------0----0--------------4---------0-------|
G-------6--------8---------4--------4--------0---------0--------------------0---------|
D-----5--------7---------3--------3------------------------------4-------0------------|
A---7--------9---------5--------5--------3-----------------3-2------------------------|
D-------------------------------------------------------------------------------------|

E----------------------------------------------------0------0----------------------0--|
B---------0---------0---------0-------0---------0----0--------------4---------0-------|
G-------6--------8---------4--------4--------0---------0--------------------0---------|
D-----5--------7---------3--------3------------------------------4-------0------------|
A---7--------9---------5--------5--------3-----------------3-2------------------------|
D-------------------------------------------------------------------------------------|

E----------------------------------------------------0------0----------------------0--|
B---------0---------0---------0-------0---------0----0--------------4---------0-------|
G-------6--------8---------4--------4--------0---------0--------------------0---------|
D-----5--------7---------3--------3------------------------------4-------0------------|
A---7--------9---------5--------5--------3-----------------3-2------------------------|
D-------------------------------------------------------------------------------------|

3RD  Chorus

E------------------------------------------------------------------------------------|
B---5-5-5-5-5-5-5-5-9-9-9-9-9-9-9-9-7-7-7-7-7-7-7-7-4-4-4-4-4-4-4-4-7-7-7-7-7-7-7-7--|
G---0-0-0-0-0-0-0-0-0-0-0-0-0-0-0-0-0-0-0-0-0-0-0-0-0-0-0-0-0-0-0-0-0-0-0-0-0-0-0-0--|
D---5-5-5-5-5-5-5-5-9-9-9-9-9-9-9-9-7-7-7-7-7-7-7-7-4-4-4-4-4-4-4-4-7-7-7-7-7-7-7-7--|
A---3-3-3-3-3-3-3-3-7-7-7-7-7-7-7-7-5-5-5-5-5-5-5-5-2-2-2-2-2-2-2-2-5-5-5-5-5-5-5-5--|
D------------------------------------------------------------------------------------|

E--------------------------------------------------------------------------|
B---9-9-9-9-9-9-9-9-12-12-12-12-12-12-12-12-10-10-10-10-10-10-10-10--------|
G---0-0-0-0-0-0-0-0--0--0--0--0--0--0--0--0--0--0--0--0--0--0--0--0--0--0--|
D---9-9-9-9-9-9-9-9-12-12-12-12-12-12-12-12-10-10-10-10-10-10-10-10--------|
A---7-7-7-7-7-7-7-7-10-10-10-10-10-10-10-10--9--9--9--9--9--9--9--9--9-----|
D--------------------------------------------------------------------------|

E------------------------------------------------------------------------------------|
B---5-5-5-5-5-5-5-5-9-9-9-9-9-9-9-9-7-7-7-7-7-7-7-7-4-4-4-4-4-4-4-4-7-7-7-7-7-7-7-7--|
G---0-0-0-0-0-0-0-0-0-0-0-0-0-0-0-0-0-0-0-0-0-0-0-0-0-0-0-0-0-0-0-0-0-0-0-0-0-0-0-0--|
D---5-5-5-5-5-5-5-5-9-9-9-9-9-9-9-9-7-7-7-7-7-7-7-7-4-4-4-4-4-4-4-4-7-7-7-7-7-7-7-7--|
A---3-3-3-3-3-3-3-3-7-7-7-7-7-7-7-7-5-5-5-5-5-5-5-5-2-2-2-2-2-2-2-2-5-5-5-5-5-5-5-5--|
D------------------------------------------------------------------------------------|

E--------------------------------------------------------------------------|
B---9-9-9-9-9-9-9-9-12-12-12-12-12-12-12-12-10-10-10-10-10-10-10-10--------|
G---0-0-0-0-0-0-0-0--0--0--0--0--0--0--0--0--0--0--0--0--0--0--0--0--0--0--|
D---9-9-9-9-9-9-9-9-12-12-12-12-12-12-12-12-10-10-10-10-10-10-10-10--------|
A---7-7-7-7-7-7-7-7-10-10-10-10-10-10-10-10--9--9--9--9--9--9--9--9--9-----|
D--------------------------------------------------------------------------|

E------------------------------------------------------------------------------------|
B---5-5-5-5-5-5-5-5-9-9-9-9-9-9-9-9-7-7-7-7-7-7-7-7-4-4-4-4-4-4-4-4-7-7-7-7-7-7-7-7--|
G---0-0-0-0-0-0-0-0-0-0-0-0-0-0-0-0-0-0-0-0-0-0-0-0-0-0-0-0-0-0-0-0-0-0-0-0-0-0-0-0--|
D---5-5-5-5-5-5-5-5-9-9-9-9-9-9-9-9-7-7-7-7-7-7-7-7-4-4-4-4-4-4-4-4-7-7-7-7-7-7-7-7--|
A---3-3-3-3-3-3-3-3-7-7-7-7-7-7-7-7-5-5-5-5-5-5-5-5-2-2-2-2-2-2-2-2-5-5-5-5-5-5-5-5--|
D------------------------------------------------------------------------------------|

E--------------------------------------------------------------------------|
B---9-9-9-9-9-9-9-9-12-12-12-12-12-12-12-12-10-10-10-10-10-10-10-10--------|
G---0-0-0-0-0-0-0-0--0--0--0--0--0--0--0--0--0--0--0--0--0--0--0--0--0--0--|
D---9-9-9-9-9-9-9-9-12-12-12-12-12-12-12-12-10-10-10-10-10-10-10-10--------|
A---7-7-7-7-7-7-7-7-10-10-10-10-10-10-10-10--9--9--9--9--9--9--9--9--9-----|
D--------------------------------------------------------------------------|


E------------------------------------------------------------------------------------|
B---5-5-5-5-5-5-5-5-9-9-9-9-9-9-9-9-7-7-7-7-7-7-7-7-4-4-4-4-4-4-4-4-7-7-7-7-7-7-7-7--|
G---0-0-0-0-0-0-0-0-0-0-0-0-0-0-0-0-0-0-0-0-0-0-0-0-0-0-0-0-0-0-0-0-0-0-0-0-0-0-0-0--|
D---5-5-5-5-5-5-5-5-9-9-9-9-9-9-9-9-7-7-7-7-7-7-7-7-4-4-4-4-4-4-4-4-7-7-7-7-7-7-7-7--|
A---3-3-3-3-3-3-3-3-7-7-7-7-7-7-7-7-5-5-5-5-5-5-5-5-2-2-2-2-2-2-2-2-5-5-5-5-5-5-5-5--|
D------------------------------------------------------------------------------------|


E--------------------------------------------------------------------------|
B---9-9-9-9-9-9-9-9-12-12-12-12-12-12-12-12-10-10-10-10-10-10-10-10--------|
G---0-0-0-0-0-0-0-0--0--0--0--0--0--0--0--0--0--0--0--0--0--0--0--0--0--0--|
D---9-9-9-9-9-9-9-9-12-12-12-12-12-12-12-12-10-10-10-10-10-10-10-10--------|
A---7-7-7-7-7-7-7-7-10-10-10-10-10-10-10-10--9--9--9--9--9--9--9--9--9-----|
D--------------------------------------------------------------------------|

4TH Verse

E----------------------------------------------------0------0----------------------0--|
B---------0---------0---------0-------0---------0----0--------------4---------0-------|
G-------6--------8---------4--------4--------0---------0--------------------0---------|
D-----5--------7---------3--------3------------------------------4-------0------------|
A---7--------9---------5--------5--------3-----------------3-2------------------------|
D-------------------------------------------------------------------------------------|

E----------------------------------------------------0------0----------------------0-------|
B---------0---------0---------0-------0---------0----0--------------4---------0--------4---|
G-------6--------8---------4--------4--------0---------0--------------------0----------0---|
D-----5--------7---------3--------3------------------------------4-------0--------------4--|
A---7--------9---------5--------5--------3-----------------3-2-------------------------2---|
D------------------------------------------------------------------------------------------|
Comments