Billy Talent - Nothing To Lose Chords & Tabs

 

Nothing To Lose Chords & Tabs

Billy Talent Chords & Tabs

Version: 2 Type: Tab 0 ratings
1 star 2 stars 3 stars 4 stars 5 stars
comments

Nothing To Lose Tab

Hi There! This is tabbed for Jordan, so if your name isn't Jordan... stay away from this
tab! k thx =D... Just Kidding That Was Mean...

Tuning: Standard (EADGBE)

Verse
|-----------------------------------------0-----0-----------------0-|
|--------0-------0-------0-------0------0---0-----------4-------4---|
|------6-------8-------4-------4------0-------0-----------0---4-----|
|----5-------7-------3-------3------------------------4-----3-------|
|--7-------9-------5-------5-------3--------------3-2---------------|
|-------------------------------------------------------------------|

"Intro Chorus"
|------------------------0-------0-------0-------0-----------------
|--------5-------5-------8-------8-------7-------7-------3-------3-
|------0-------0-------0-------0-------0-------0-------0-------0---
|----5-------5-------9-------9-------7-------7-------4-------4-----
|--3-------3-------7-------7-------5-------5-------2-------2-------
|------------------------------------------------------------------
[ Tab from: http://www.guitartabs.cc/tabs/b/billy_talent/nothing_to_lose_tab_ver_2.html ]
|--------0-------0----------0-----------0---------0---------0---0^-|
|--------8-------8---------12----------12--------10--------10---7l-|
|------0-------0---------0-----------0---------0---------0------0l-|
|----9-------9--------12----------12--------10--------10--------7l-|
|--7-------7-------10----------10---------9---------9-----------6l-|
|------------------------------------------------------------------|

Chorus!
|-0-0-0-0-0-0-0-0-0-0-0-0-0-0-0-0-0-0-0-0-0-0-0-0-0-0-0-0-0-0-0-0-
|-5-5-5-5-5-5-5-5-8-8-8-8-8-8-8-8-7-7-7-7-7-7-7-7-3-3-3-3-3-3-3-3-
|-0-0-0-0-0-0-0-0-0-0-0-0-0-0-0-0-0-0-0-0-0-0-0-0-0-0-0-0-0-0-0-0-
|-5-5-5-5-5-5-5-5-9-9-9-9-9-9-9-9-7-7-7-7-7-7-7-7-4-4-4-4-4-4-4-4-
|-3-3-3-3-3-3-3-3-7-7-7-7-7-7-7-7-5-5-5-5-5-5-5-5-2-2-2-2-2-2-2-2-
|-----------------------------------------------------------------

|-0-0-0-0-0-0-0-0--0--0--0--0--0--0--0--0--0--0--0--0--0--0--0--0---0--|
|-8-8-8-8-8-8-8-8-12-12-12-12-12-12-12-12-10-10-10-10-10-10-10-10---7--|
|-0-0-0-0-0-0-0-0--0--0--0--0--0--0--0--0--0--0--0--0--0--0--0--0---0--|
|-9-9-9-9-9-9-9-9-12-12-12-12-12-12-12-12-10-10-10-10-10-10-10-10---7--|
|-7-7-7-7-7-7-7-7-10-10-10-10-10-10-10-10--9--9--9--9--9--9--9--9---6--|
|----------------------------------------------------------------------|
Comments