Billy Talent - Nothing To Loose Chords & Tabs

 

Nothing To Loose Chords & Tabs

Billy Talent Chords & Tabs

Version: 1 Type: Tab 1 rating
1 star 2 stars 3 stars 4 stars 5 stars
comments

Nothing To Loose Tab

   
NOTHING TO LOSE
                           As recorded by Billy Talent
                       (From the 2003 Album BILLY TALENT)

Gtr I (D A D G B E) - 'Untitled'

   Intro
    Q=146
    (Em6)   (B7/F#)   (Dm6)             (Cmaj7)             (B)     (Emaj7sus4/F)
   4/4
    Gtr I
    E E E E E E E E   E E E E E E E E    E  E E E E E E E   E E E E E E E E   4x
||------------------|-----------------|-(0)---------------|---------------0---||
||o-------0-------0-|-------0-------0-|---------5-----5---|-----4-------4----o||
||------6-------8---|-----4-------4---|-------4---4-------|-----------2-------||
||----5-------7-----|---3-------3-----|-----5-------5---5-|---4-----3---------||
||o-7-------9-------|-5-------5-------|--3----------------|-2-----2----------o||
||------------------|-----------------|-------------------|-------------------||


 Chorus (first time)
  (C)               (Em)              (Em11/D)          (Em9/B)
  E E E E E E E E   E E E E E E E E   E E E E E E E E   E E E E E E E E
|-------0-------0-|-------0-------0-|-------0-------0-|-------0-------0-|
|-----5-------5---|-----8-------8---|-----7-------7---|-----3-------3---|
|-----0-------0---|-----0-------0---|-----0-------0---|-----0-------0---|
|---5-------5-----|---9-------9-----|---7-------7-----|---4-------4-----|
|-3-------3-------|-7-------7-------|-5-------5-------|-2-------2-------|
|-----------------|-----------------|-----------------|-----------------|


  (Em)              (G6)                    (Am/F#)               (Em11/D)
  E E E E E E E E    E  E  E E  E  E  E E   E  E  E E E  E  E E   W
|-------0-------0-|----------0----------0-|---------0---------0-|-0----|
|-----8-------8---|-------12---------12---|------10--------10---|-7----|
|-----0-------0---|--------0----------0---|-------9---------9---|-0----|
|---9-------9-----|----12---------12------|---10--------10------|-7----|
|-7-------7-------|-10---------10---------|-9---------9---------|-5----|
|-----------------|-----------------------|---------------------|------|


   Verse
    (Em6)   (B7/F#)   (Dm6)             (Cmaj7)             (B)     (Emaj7sus4/F)
    E E E E E E E E   E E E E E E E E    E  E E E E E E E   E E E E E E E E   6x
||------------------|-----------------|-(0)---------------|---------------0---||
||o-------0-------0-|-------0-------0-|---------5-----5---|-----4-------4----o||
||------6-------8---|-----4-------4---|-------4---4-------|-----------2-------||
||----5-------7-----|---3-------3-----|-----5-------5---5-|---4-----3---------||
||o-7-------9-------|-5-------5-------|--3----------------|-2-----2----------o||
||------------------|-----------------|-------------------|-------------------||


   Chorus
    C                 Em                Em11/D            Em9/B
    E E E E E E E E   E E E E E E E E   E E E E E E E E   E E E E E E E E
||--0-0-0-0-0-0-0-0-|-0-0-0-0-0-0-0-0-|-0-0-0-0-0-0-0-0-|-0-0-0-0-0-0-0-0--|
||o-5-5-5-5-5-5-5-5-|-8-8-8-8-8-8-8-8-|-7-7-7-7-7-7-7-7-|-3-3-3-3-3-3-3-3--|
||--0-0-0-0-0-0-0-0-|-0-0-0-0-0-0-0-0-|-0-0-0-0-0-0-0-0-|-0-0-0-0-0-0-0-0--|
||--5-5-5-5-5-5-5-5-|-9-9-9-9-9-9-9-9-|-7-7-7-7-7-7-7-7-|-4-4-4-4-4-4-4-4--|
||o-3-3-3-3-3-3-3-3-|-7-7-7-7-7-7-7-7-|-5-5-5-5-5-5-5-5-|-2-2-2-2-2-2-2-2--|
||------------------|-----------------|-----------------|------------------|


  Em                G6
  E E E E E E E E    E  E  E  E  E  E  E  E
|-0-0-0-0-0-0-0-0-|--0--0--0--0--0--0--0--0-|
|-8-8-8-8-8-8-8-8-|-12-12-12-12-12-12-12-12-|
|-0-0-0-0-0-0-0-0-|--0--0--0--0--0--0--0--0-|
|-9-9-9-9-9-9-9-9-|-12-12-12-12-12-12-12-12-|
|-7-7-7-7-7-7-7-7-|-10-10-10-10-10-10-10-10-|
|-----------------|-------------------------|

[ Tab from: http://www.guitartabs.cc/tabs/b/billy_talent/nothing_to_loose_tab.html ]
  Am/F#                     Em11/D
   E  E  E  E  E  E  E  E   E E E E E E E E  3x
|--0--0--0--0--0--0--0--0-|-0-0-0-0-0-0-0-0--||
|-10-10-10-10-10-10-10-10-|-7-7-7-7-7-7-7-7-o||
|--9--9--9--9--9--9--9--9-|-0-0-0-0-0-0-0-0--||
|-10-10-10-10-10-10-10-10-|-7-7-7-7-7-7-7-7--||
|--9--9--9--9--9--9--9--9-|-5-5-5-5-5-5-5-5-o||
|-------------------------|------------------||


   Verse
    (Em6)   (B7/F#)   (Dm6)             (Cmaj7)             (B)     (Emaj7sus4/F)
    E E E E E E E E   E E E E E E E E    E  E E E E E E E   E E E E E E E E   4x
||------------------|-----------------|-(0)---------------|---------------0---||
||o-------0-------0-|-------0-------0-|---------5-----5---|-----4-------4----o||
||------6-------8---|-----4-------4---|-------4---4-------|-----------2-------||
||----5-------7-----|---3-------3-----|-----5-------5---5-|---4-----3---------||
||o-7-------9-------|-5-------5-------|--3----------------|-2-----2----------o||
||------------------|-----------------|-------------------|-------------------||


   Chorus
    C                 Em                Em11/D            Em9/B
    E E E E E E E E   E E E E E E E E   E E E E E E E E   E E E E E E E E
||--0-0-0-0-0-0-0-0-|-0-0-0-0-0-0-0-0-|-0-0-0-0-0-0-0-0-|-0-0-0-0-0-0-0-0--|
||o-5-5-5-5-5-5-5-5-|-8-8-8-8-8-8-8-8-|-7-7-7-7-7-7-7-7-|-3-3-3-3-3-3-3-3--|
||--0-0-0-0-0-0-0-0-|-0-0-0-0-0-0-0-0-|-0-0-0-0-0-0-0-0-|-0-0-0-0-0-0-0-0--|
||--5-5-5-5-5-5-5-5-|-9-9-9-9-9-9-9-9-|-7-7-7-7-7-7-7-7-|-4-4-4-4-4-4-4-4--|
||o-3-3-3-3-3-3-3-3-|-7-7-7-7-7-7-7-7-|-5-5-5-5-5-5-5-5-|-2-2-2-2-2-2-2-2--|
||------------------|-----------------|-----------------|------------------|


  Em                G6
  E E E E E E E E    E  E  E  E  E  E  E  E
|-0-0-0-0-0-0-0-0-|--0--0--0--0--0--0--0--0-|
|-8-8-8-8-8-8-8-8-|-12-12-12-12-12-12-12-12-|
|-0-0-0-0-0-0-0-0-|--0--0--0--0--0--0--0--0-|
|-9-9-9-9-9-9-9-9-|-12-12-12-12-12-12-12-12-|
|-7-7-7-7-7-7-7-7-|-10-10-10-10-10-10-10-10-|
|-----------------|-------------------------|


  Am/F#                     Em11/D
   E  E  E  E  E  E  E  E   E E E E E E E E  4x
|--0--0--0--0--0--0--0--0-|-0-0-0-0-0-0-0-0--||
|-10-10-10-10-10-10-10-10-|-7-7-7-7-7-7-7-7-o||
|--9--9--9--9--9--9--9--9-|-0-0-0-0-0-0-0-0--||
|-10-10-10-10-10-10-10-10-|-7-7-7-7-7-7-7-7--||
|--9--9--9--9--9--9--9--9-|-5-5-5-5-5-5-5-5-o||
|-------------------------|------------------||


   Out-Chorus
    (Em6)   (B7/F#)   (Dm6)
    E E E E E E E E   E E E E E E E E
||------------------|-----------------|
||o-------0-------0-|-------0-------0-|
||------6-------8---|-----4-------4---|
||----5-------7-----|---3-------3-----|
||o-7-------9-------|-5-------5-------|
||------------------|-----------------|


  (Cmaj7)                 (B)     (Emaj7sus4/F)
   E  E  S  S E E E E E   E E E E E E E E
|-(0)-------------------|---------------0--||
|-------------5-----5---|-----4-------4---o||
|-----------4---4-------|-----------2------||
|-----5-----------5---5-|---4-----3--------||
|--3----(3)-------------|-2-----2---------o||
|-----------------------|------------------||


 Outro
  Em6
   W           +W
|-(0)--------|-(0)----*|
|--0---------|-(0)----*|
|--6---------|-(6)----*|
|--5---------|-(5)----*|
|--7---------|-(7)----*|
|------------|--------*|


Duration Legend
---------------
W - whole; H - half; Q - quarter; E - 8th; S - 16th; T - 32nd; X - 64th; a - acciaccatura
+ - note tied to previous; . - note dotted; .. - note double dotted
Uncapitalized letters represent notes that are staccato (1/2 duration)
Irregular groupings are notated above the duration line
Duration letters will always appear directly above the note/fret number it represents the
duration for.  Duration letters with no fret number below them represent rests.  Multi-
bar rests are notated in the form Wxn, where n is the number of bars to rest for.  Low
melody durations appear below the staff

Tablature Legend
----------------
 h   - hammer-on
 p   - pull-off
 b   - bend
 pb  - pre-bend
 r   - bend release (if no number after the r, then release immediately)
 /\  - slide into or out of (from/to "nowhere")
 s   - legato slide
 S   - shift slide
  - natural harmonic
[n]  - artificial harmonic
n(n) - tapped harmonic
 ~   - vibrato
 tr  - trill
 T   - tap
 TP  - trem. picking
 PM  - palm muting
\n/  - tremolo bar dip; n = amount to dip
 \n  - tremolo bar down
 n/  - tremolo bar up
/n\  - tremolo bar inverted dip
 =   - hold bend; also acts as connecting device for hammers/pulls
   - volume swell (louder/softer)
 x   - on rhythm slash represents muted slash
 o   - on rhythm slash represents single note slash

Misc Legend
-----------
 |  - bar
||  - double bar
||o - repeat start
o|| - repeat end
*|  - double bar (ending)
 :  - bar (freetime)
 $  - Segno
 &  - Coda
Tempo markers -  = BPM(8/16=s8/s16), where s8 = swing 8ths, s16 = swing 16ths

Comments