Billy Talent - Living In The Shadows Chords & Tabs

 

Living In The Shadows Chords & Tabs

Billy Talent Chords & Tabs

Version: 4 Type: Tab 0 ratings
1 star 2 stars 3 stars 4 stars 5 stars
comments

Living In The Shadows Tab

   
----------------------------------------------------------------------------
		    Living In The Shadows - Billy Talent
----------------------------------------------------------------------------
Tabbed by: Stumaster18
Email:???
Tuning: Drop D (D A D G B e)

I hope you enjoy my work, cause this is an awesome song. Please rattte!

Intro: Play this through twice.
e|------------------------------------------------------------------------|
B|-10-10-10-10-10-10-10-10---8-8-8-8-8-8-8-8--6-6-6-6-6-6-----------------|
G|--7--7--7--7--7--7--7--7---6-6-6-6-6-6-6-6--4-4-4-4-4-4-----------------|
D|--x--x--x--x--x--x--x--x---x-x-x-x-x-x-x-x--x-x-x-x-x-x--8-5-7--0-0-0-0-|
A|--8--8--8--8--8--8--8--8---7-7-7-7-7-7-7-7--5-5-5-5-5-5--8-5-7--0-0-0-0-|
D|---------------------------------------------------------8-5-7--0-0-0-0-|

e|-10-10-10-10-10-10-10-10------------------------------------------------|
B|-10-10-10-10-10-10-10-10---8-8-8-8-8-8-8-8--6-6-6-6-6-6-----------------|
G|--7--7--7--7--7--7--7--7---6-6-6-6-6-6-6-6--4-4-4-4-4-4-----------------|
D|--x--x--x--x--x--x--x--x---x-x-x-x-x-x-x-x--x-x-x-x-x-x--8-5-7--0-0-0-0-|
A|--8--8--8--8--8--8--8--8---7-7-7-7-7-7-7-7--5-5-5-5-5-5--8-5-7--0-0-0-0-|
D|---------------------------------------------------------8-5-7--0-0-0-0-|

1st Verse:
e|-------------------------------|
B|-10~---8~---6~-----------------| [ Tab from: http://www.guitartabs.cc/tabs/b/billy_talent/living_in_the_shadows_tab_ver_4.html ]
2nd Verse:
e|-------------------------------|
B|-10~---8~---6~-----------------| 
							
													
Comments