Billy Talent - Living In The Shadows Chords & Tabs

 

Living In The Shadows Chords & Tabs

Billy Talent Chords & Tabs

Version: 3 Type: Tab 0 ratings
1 star 2 stars 3 stars 4 stars 5 stars
comments

Living In The Shadows Tab

Song:  Living in the shadows
Artist:  Billy Talent
Tuning:  Drop D

I am 99.9% sure that this is how Ian plays it.

e------------------------------------------------------------------------|
b-10-10-10-10-10-10-10-10-8--8--8--8--8--8--8--8--6--6--6--6--6--6--6--6-|
g-7--7--7--7--7--7--7--7--6--6--6--6--6--6--6--6--7--7--7--7--7--7--7--7-|
d-------------------------------------------------7--7--7--7--7--7--7--7-|
a-8--8--8--8--8--8--8--8--7--7--7--7--7--7--7--7--5--5--5--5--5--5--5--5-|
d------------------------------------------------------------------------|
[ Tab from: http://www.guitartabs.cc/tabs/b/billy_talent/living_in_the_shadows_tab_ver_3.html ]
e----------------------|
b----------------------|
g----------------------|
d-8--5--7--0--0--0--0--|
a-8--5--7--0--0--0--0--|
d-8--5--7--0--0--0--0--|

e-------------------------9--9--9--9--9--9--9--9-------------------------|
b-10-10-10-10-10-10-10-10-8--8--8--8--8--8--8--8--6--6--6--6--6--6--6--6-|
g-7--7--7--7--7--7--7--7--6--6--6--6--6--6--6--6--7--7--7--7--7--7--7--7-|
d-------------------------------------------------7--7--7--7--7--7--7--7-|
a-8--8--8--8--8--8--8--8--7--7--7--7--7--7--7--7--5--5--5--5--5--5--5--5-|
d------------------------------------------------------------------------|

e----------------------|
b----------------------|
g----------------------|
d-8--5--7--0--0--0--0--|
a-8--5--7--0--0--0--0--|
d-8--5--7--0--0--0--0--|
Comments