Billy Talent - Living In The Shadows Chords & Tabs

 

Living In The Shadows Chords & Tabs

Billy Talent Chords & Tabs

Version: 1 Type: Tab 0 ratings
1 star 2 stars 3 stars 4 stars 5 stars
comments

Living In The Shadows Tab

I'm just going to give you the tablature for the chords and the fills.
You can listen to the cd and get the timing for yourself, it's simple.


Intro and Verse:

e|-------------7----------5----------------------|
b|--10---------8----------6----------------------|
g|--x----------9----------7----------------------|
d|--7----------9----------7----------------------|
a|--8----------7----------5----------8-5-7-0-0-0-|
D|------------------------0----------8-5-7-0-0-0-|

Chorus:
[ Tab from: http://www.guitartabs.cc/tabs/b/billy_talent/living_in_the_shadows_tab.html ]
e|-----------------------------------------------|
b|--6----------8----------11---------------------|
g|--5----------7----------10---------2-----------|
d|--3----------5----------8----------0-----------|
a|--3----------5----------8----------0-----------|
D|--3----------5----------8----------0-----------|

Bridge:

e|--5----------3---------------------1-----------|
b|--6----------5----------6----------3-----------|
g|--7----------3----------5----------3-----------|
d|--7----------5----------3----------3-----------|
a|--5----------3----------3----------1-----------|
D|--0---------------------3----------------------|


Three main parts that are all pretty simple to play.  I'an really makes it sound
kick ass and he's even said that it's his favourite song to play live because he
really gets into it.  Have fun kids.
Comments