Billy Talent - Line And Sinker Chords & Tabs

 

Line And Sinker Chords & Tabs

Billy Talent Chords & Tabs

Version: 2 Type: Tab 0 ratings
1 star 2 stars 3 stars 4 stars 5 stars
comments

Line And Sinker Tab

Billy Talent
Line & Sinker
Billy Talent
Tabbed By: Mike, apguitar182@yahoo.com
Dropped D Tuning

Intro Pt 1
|-----------|---------------------------------0----------0--0--|
|-----------|---------------------------------2----------2--2--|
|---voice---|-----------------2-2-2-2-2-------2----------2--2--|
|---intro---|-4-4-4-4-4-4-4-4-2-2-2-2-2-------0-------0--0--x--|
|-----------|-4-4-4-4-4-4-4-4-0-0-0-0-0-4p2-0---------------2--|
|-----------|-4-4-4-4-4-4-4-4----------------------------------|

|---------------------------------------------|
|---------------------------------------------|
|----------------------------2-2-2-2-2--------|
|-------0----4-4-4-4-4-4-4-4-2-2-2-2-2--------|
|----------2-4-4-4-4-4-4-4-4-0-0-0-0-0-4p2-0--|
|------------4-4-4-4-4-4-4-4------------------|

Intro Pt 2
|-0-0-0-0-0-0-0-0-0-0-0-0-0-0-0-0----------------------------------|x2
|-2-2-2-2-2-2-2-2-2-2-2-2-2-2-2-2----------------------------------|
|-2-2-2-2-2-2-2-2-2-2-2-2-2-2-2-2-----------------2-2-2-2-2--------|
|-0-0-0-0-0-0-0-0-x-x-x-x-x-x-x-x-4-4-4-4-4-4-4-4-2-2-2-2-2--------|
|-----------------2-2-2-2-2-2-2-2-4-4-4-4-4-4-4-4-0-0-0-0-0-4p2-0--|
|---------------------------------4-4-4-4-4-4-4-4------------------|

Verse
|-------0-------0----------0-------0--|
|-------2-------2----------2-------2--|
|----2-------2-----2----2-------2-----|
|-------------------------------------|
|---------2------------------0--------|
|-0------------------4----------------|

|-------0-------0----------0-------0-------|x2
|-------2-------2----------2-------2b3r~~~~|
|----2-------2-----2----2-------2----------|
|------------------------------------------|
|---------2------------------0-------------|
|-0------------------4---------------------|
[ Tab from: http://www.guitartabs.cc/tabs/b/billy_talent/line_and_sinker_tab_ver_2.html ]
Pre-Chorus 
|--0-0---0-0-0-0--0-0---0-0-0-0--0-0---0-0---0-0--|x4
|--8-8---8-8-7-7--7-7---7-7-5-5--5-5---3-3---3-3--|
|--9-9---9-9-7-7--7-7---7-7-6-6--6-6---4-4---4-4--|
|-------------------------------------------------|
|-------------------------------------------------|
|-------------------------------------------------|

Chorus Pt 1
|-0----------0--0---------------------------------------------|x2
|-2----------2--2---------------------------------------------|
|-2----------2--2----------------------------2-2-2-2-2--------|
|-0-------0--0--x-------0----4-4-4-4-4-4-4-4-2-2-2-2-2--------|
|---------------2----------2-4-4-4-4-4-4-4-4-0-0-0-0-0-4p2-0--|
|----------------------------4-4-4-4-4-4-4-4------------------|

Chorus Pt2
*same as intro pt 2* *also x2*

(Verse)
(Pre-Chorus)
(Chorus Pt1+Pt2)

Bridge                   x4Pm then x2 w/o Pm                             x1
|-----------------------------------0-0---0-0--0-0----0-0------------|-0--x-x--|
|-----------------------------------2-2---2-2--2-2----2-2------------|-2--x-x--|
|-----------------------------------2-2---2-2--2-2----2-2------------|-2--x-x--|
|-----------------------------------0-0---0-0--x-x----x-x------------|-x--x-x--|
|-4-4---0-4-0-0-0----0-0---0-0-0-0-------------2-2----2-2-0-4p0-5p4--|-2--x-x--|
|-4-4---------0-0----0-0---0-0-0-0-----------------------------------|---------|
Outro Pt 1 
|----------------------------------|
|----------------------------------|
|-----------------2-2-2-2-2--------|
|-4-4-4-4-4-4-4-4-2-2-2-2-2--------|
|-4-4-4-4-4-4-4-4-0-0-0-0-0-4p2-0--|
|-4-4-4-4-4-4-4-4------------------|

Outro Pt 2
|-0-0-0-0-0-0-0-0-0-0-0-0-0-0-0-0---------------------------------|x3
|-2-2-2-2-2-2-2-2-2-2-2-2-2-2-2-2---------------------------------|
|-2-2-2-2-2-2-2-2-2-2-2-2-2-2-2-2-----------------2-2-2-2-2-------|
|-0-0-0-0-0-0-0-0-x-x-x-x-x-x-x-x-4-4-4-4-4-4-4-4-2-2-2-2-2-------|
|-----------------2-2-2-2-2-2-2-2-4-4-4-4-4-4-4-4-0-0-0-0-0-4p2-0-|
|---------------------------------4-4-4-4-4-4-4-4-----------------|

End On
|-0--|
|-2--|
|-2--|
|-0--|
|----|
|----|
Comments