Billy Talent - Line And Sinker Chords & Tabs

 

Line And Sinker Chords & Tabs

Billy Talent Chords & Tabs

Version: 2 Type: Bass Tab 0 ratings
1 star 2 stars 3 stars 4 stars 5 stars
comments

Line And Sinker Bass Tab

   
Song - Line And Sinker
Band - Billy Talent
Tabber - 555_Maggot_666
Tuning - Drop D (D,A,D,G)

Intro
G|-----------------------|
D|-----------------------|
A|-------------------420-|
D|-44444444-77777777-----|

G|----------------------------|
D|----------------------------|
A|-4-42-22----------------420-|
D|--------44444444-777777-----|

G|-----------------------------------------|
D|-----------------------------------------| x2
A|-44444444-22222222-------------------420-|
D|-------------------44444444-77777777-----|

Verse x2
G|---------------------|
D|---------------------|
A|-44~--22~------------|
D|-----------44~--77~--|

G|-------------------------|
D|-------------------------|
A|-44~--22~----------------|
D|-----------44~--77~--420-|

Pre-Chorus
G|--------------------------------------|
D|--------------------------------------| x4
A|------------------4444-2222-2h4p2-2p0-|
D|-22-254-00-00-420---------------------|
[ Tab from: http://www.guitartabs.cc/tabs/b/billy_talent/line_and_sinker_btab_ver_2.html ]
Chorus
G|-------------------------------|
D|-------------------------------| x2
A|-4-42-22-------------------420-|
D|---------44444444-77777777-----|

G|-----------------------------------------|
D|-----------------------------------------| x2
A|-44444444-22222222-------------------420-|
D|-------------------44444444-77777777-----|

Verse 
Pre-Chorus
Chorus

Bridge
G|--------------------------------------|
D|--------------------------------------| x6
A|------------------4444-2222-2h4p2-2p0-|
D|-22-254-00-00-420---------------------|

G|---------------------------------------|
D|---------------------------------------| 
A|-----------------4444-2222-2h4p2-2p0---|
D|-22-254-00-00-420--------------------0-|

Chorus
G|-----------------------|
D|-----------------------|
A|-------------------420-|
D|-44444444-77777777-----|

G|-----------------------------------------|
D|-----------------------------------------| x3 
A|-44444444-22222222-------------------420-|
D|-------------------44444444-77777777-----|

Enjoy!
Comments