Billy Talent - Line And Sinker Chords & Tabs

 

Line And Sinker Chords & Tabs

Billy Talent Chords & Tabs

Version: 1 Type: Bass Tab 0 ratings
1 star 2 stars 3 stars 4 stars 5 stars
comments

Line And Sinker Bass Tab

g|----------------------------------------|
d|----------------------------------------|
a|---------00000420-5--55-2---222---------|
d|44444444--------------------------------| intro

g|----------------------------------------|
d|----------------------------------------|
a|---------00000420--55555555---22222222--|
d|44444444--------------------------------|x2

g|----------------------------------------|
d|----------------------------------------|
a|---------00000420-----------------------|
d|44444444--------------------------------|

g|----------------------------------------|
d|----------------------------------------|
a|----5422-------00------5422-------00----|
d|00--------44--4----00--------44--4---420|verse x2

g|----------------------------------------|
d|----------------------------------------|
a|-----------------44-4444-2-2-4542-------|
d|22-4542-0-0-2420------------------------|pre chorus x4
[ Tab from: http://www.guitartabs.cc/tabs/b/billy_talent/line_and_sinker_btab.html ]
g|----------------------------------------|
d|----------------------------------------|
a|5-55-2-222----------00000420------------|
d|-----------44444444---------------------|chorus pt 1 x2

g|----------------------------------------|
d|----------------------------------------|
a|5555555-22222222-----------00000420-----|
d|------------------44444444--------------|pt 2 x2

verse x2
pre chorus x4
chorus pt1 x2
pt2 x2
pre chorus x6

g|----------------------------------------|
d|----------------------------------------|
a|5---------------------------------------|
d|----------------------------------------| 

g|----------------------------------------|
d|----------------------------------------|
a|---------00000420--55555555---22222222--|
d|44444444--------------------------------| outro x3

g|----------------------------------------|
d|----------------------------------------|
a|---------00000420--5--------------------|
d|44444444--------------------------------|
Comments