Billy Talent - Lies Chords & Tabs

 

Lies Chords & Tabs

Billy Talent Chords & Tabs

Version: 3 Type: Tab 0 ratings
1 star 2 stars 3 stars 4 stars 5 stars
comments

Lies Tab

   
-----------------------------------------------------------------------------
			     "Lies" (correct) - Billy Talent
-----------------------------------------------------------------------------
Tabbed by:Jeremy Head

This is the way that Ian D'sa plays it

Email:Jeremy_Talent@hotmail.com

Tuning:Drop D

Intro & Chorus
e|-----------------|----------------|------------------|----------0----|
B|-----------------|----------------|------------------|----------1-3--|
G|-----------------|------5/7--5-4--|------------------|------0h2-2----|
D|--9---9-10-9---7-|----2-----------|--9---9-10-9---7--|----2-----2----|
A|-----------------|--3-------------|------------------|--3-------0----|
D|----5--------0---|-----------2----|----5--------0----|---------------|


Verse - Repeat
e|--0---------0----0----0----0----0--------------------------------------|
B|--0---------7----5----8----7----5----5-5--5b--5-5--5b----5-5--5b--5-5--|
G|--0---------0----0----0----0----0--------------------------------------| 
D|--2----2----7----5----9----7----5----2-2------2-2--------2-2------2-2--|
A|--3----2----5----3----7----5----3----2-2------2-2--------2-2------2-2--|
D|-------2-----------------------------2-2------2-2--------2-2------2-2--|

Alternate Chorus (Acoustic Version)
[ Tab from: http://www.guitartabs.cc/tabs/b/billy_talent/lies_tab_ver_3.html ]
e|----------------------------|----------------------0-0-----|
B|----------------------------|----------------------1-1-----|
G|----------------5-5---------|---------------5-5--5-2-2-----|
D|---5--5-7-0--0--5-5--0-2-2--|--5--5-7-0--0--5-5--5-2-2-----|
A|---5--5-7-0--0--3-3--0-2-2--|--5--5-7-0--0--3-3--3-0-0-----|
D|---5--5-7-0--0-------0-2-2--|--5--5-7-0--0-----------------|

Riff 1
e|-----------------------------------------8X-----------------8X-----------|
B|-------8-8-----8-8-----8-7-5-3-------------------------------------------|
G|-------0-0-----0-0-----0-0-0-0-----1111111111111111--1111111111111111----|
D|--0-0--9-9--0--9-9--0--9-7-5-4------9-9-9-9-9-9-9-9--1010101010101010----|
A|--0-0--7-7--0--7-7--0--7-5-3-2------9-9-9-9-9-9-9-9--1010101010101010----|
D|--0-0-------0-------0---------------9-9-9-9-9-9-9-9--1010101010101010----|
    Ben                                Ian   
   "lies will comeback to haunt you"    "bulletproof your limosine"   
                                          
                                           ^^^^              ^^^^
                                      Nines & Elevens  Tens & Elevens

That's the whole song
| b  bend
| /  slide up
| \  slide down
| h  hammer-on
| p  pull-off
| ~  vibrato
| +  harmonic
| x  Mute note
============================================================================
Comments