Billy Talent - Lies Chords & Tabs

 

Lies Chords & Tabs

Billy Talent Chords & Tabs

Version: 2 Type: Tab 0 ratings
1 star 2 stars 3 stars 4 stars 5 stars
comments

Lies Tab

Band: Billy Talent
Title: Lies
Album: Billy Talent
Tabber: Sqweeky

Intro/Chorus
e|-----------------------0--------------------------------0------|
B|-----------------------1h3-1-0--------------------------0-3----|
G|--4--4-5-4--2----------0----------4--4-5-4--2-------0h2-2------|
D|---------------------2----------------------------2------------|
A|-------------------3----------------------------3--------------|
D|---------------------------------------------------------------|
[ Tab from: http://www.guitartabs.cc/tabs/b/billy_talent/lies_tab_ver_2.html ]
Verse
e|---------------0----0----0----0----0----0--0-----0--0-----0-0----0---0--------|
B|----------5----7----5----8----7----5----5--5h6---5--5h6---5-5h6--5h6-5h6------|
G|-----4---------7----5----9----7----5----4--4-----4--4-----4-4----4---4--------|
D|------------------------------------------------------------------------------|
A|------------------------------------------------------------------------------|
D|------------------------------------------------------------------------------|

Bridge
e|---0-00----0-00----0-0-0-0-0-0----2-------|--5-77----5-77----5-7-5-3-2-3----2---------|
B|---7-88----7-88----7-8-7-5-3-5----0-(x16)-|--7-88----7-88----7-8-7-5-3-5----0-(x16)---|
G|---7-99----7-99----7-9-7-5-4-4----4-------|--7-99----7-99----7-9-7-5-4-4----4---------|
D|------------------------------------------|-------------------------------------------|
A|------------------------------------------|-------------------------------------------|
D|------------------------------------------|-------------------------------------------|


Order:

Intro (x2)
Verse (x2)
Chorus(x2)
Verse (x1)
Chorus(x4)
Bridge (both a&b once) then just B one more time
Chorus(x5)
Comments