Billy Talent - Lies Chords & Tabs

 

Lies Chords & Tabs

Billy Talent Chords & Tabs

Version: 1 Type: Bass Tab 0 ratings
1 star 2 stars 3 stars 4 stars 5 stars
comments

Lies Bass Tab

   
-------------------------------------------------------------------------------
			     LIES - Billy Talent
-------------------------------------------------------------------------------

Tabbed By : Bryce Kirk
e-mail: bass_player1010@hotmail.com

Tuning: D A D G

VERSES
G|---------------------------------------------------------------------------|
D|-------------0-0-2-2-2-2-2-2-2-2-0-0-0-0-0-0-0-0---------------------------|
A|-3-3-3-3-3-3-------------------------------------3-3-3-3-3-3-2-0-----------|
D|---------------------------------------------------------------------------|

[ Tab from: http://www.guitartabs.cc/tabs/b/billy_talent/lies_btab.html ]
G|---------------------------------------------------------------------------|
D|---------------------------------------------------------------------------|
A|---------------------------------------3-3-3-3-3-3-3-3---------------------|
D|-2-2-2-2--2-2-2-2---0-0-0-0-0-0-0-0-----------------2-2^3-2-2^3-2-2^3-2-4--|
         

CHORUS/INTRO 
G|---------------------------------------------------------------------------|
D|---------------------------------------------------------------------------|
A|----------3-35---------------3-35------------------------------------------|
D|-5-57-0-2------2-4--5-57-0-2------2-4--------------------------------------|

BRIDGE
G|---------------------------------------------------------------------------|
D|---------------------------------------------------------------------------|
A|-5-77-5-77-57-5-3-2-3---2-2-2-2-2-2-2-2--3-3-3-3-3-3-3-3-------------------|
D|---------------------------------------------------------------------------|


| /  slide up
| \  slide down
| h  hammer-on
| p  pull-off
| ~  vibrato
| +  harmonic
| x  Mute note
| ^  Bend to
===============================================================================
Comments