Billy Ray Cyrus - Achy Breaky Heart Chords & Tabs

 

Achy Breaky Heart Chords & Tabs

Billy Ray Cyrus Chords & Tabs

Version: 2 Type: Tab

Achy Breaky Heart Tab

e|----------------------------------------------|
G|----------------------------------------------|
B|--2--2-----------2--2-----------2--2----------|
D|--------4--2--4--------4--2--4--------4--2--4-|
A|----------------------------------------------|
E|----------------------------------------------|

[ Tab from: http://www.guitartabs.cc/tabs/b/billy_ray_cyrus/achy_breaky_heart_tab_ver_2.html ]
e|-0--0-----------0--0-----------0--0-----------0--0-----------|
G|-------2--0--2--------2--0--2--------2--0--2--------2--0--2--|
B|-------------------------------------------------------------|
D|-------------------------------------------------------------|
A|-------------------------------------------------------------|
E|-------------------------------------------------------------|

Then repeat for the entire song! Simple!