Billy Joel - Only The Good Die Young Chords & Tabs

 

Only The Good Die Young Chords & Tabs

Billy Joel Chords & Tabs

Version: 1 Type: Bass Tab 0 ratings
1 star 2 stars 3 stars 4 stars 5 stars
comments

Only The Good Die Young Bass Tab

Verse/Intro:

G--------------------|--------------------5*--|
D------3-----5-6-7-5-|--4-4-------------------|
A--------5-3---------|-------5-3------2-3-----|
E--1-1---------------|------------5-3---------|

G------------------------|------------------|
D------3-----------------|-3-------------5*-|
A---------5-3------------|---5-3------------|
E-1-1---------5-6-7-5-1-1|-------5-3-5-3----|
[ Tab from: http://www.guitartabs.cc/tabs/b/billy_joel/only_the_good_die_young_btab.html ]
Chorus:

G------------------|-----------4-2--------|
D--------5-3-------|---------------5-2----|
A--3-3--------4-2--|----------------------|
E------------------|----5--5--------------|

Bridge:

G--------------------------------------------11--|
D------------------------------------------------|
A--5-5---------7-7-------9-9---------9-10-11-----|
E-------7-5-7------9-7-9-----11-9-11-------------|

--
Comments