Billy Joe Royal - Down In The Boondocks Chords & Tabs

 

Down In The Boondocks Chords & Tabs

Billy Joe Royal Chords & Tabs

Version: 1 Type: Bass Tab 0 ratings
1 star 2 stars 3 stars 4 stars 5 stars
comments

Down In The Boondocks Bass Tab

Down In The Boondocks                                    Billy Joe Royal


This is a really easy song, one of my favorites. The beat is really
easy and the bassist keeps it simple. 



Intro

A---------------------------------------------------------------
E--5-----5---5--5-5---5--5-5---5--5-5---5--5-5---5--5-5---5--5-5

Chorus1 (2x)

A--------------------5--5-5---5--5-5---7--7-7---5--5-5------------------
E--5--5-5---5--5-5---------------------------------------5--5-5---5--5-5


Verse1 

A--------------------5--5-5---------------------5--5-5---4--4-4---------
E--5--5-5---5--5-5------------5--5-5---5--5-5---------------------2--2-2


A--5--5-5---7--7-7---5--5-5---7--7-7---5--5-5---7--7-7---5--5-5---7--7-7
E-----------------------------------------------------------------------


Chorus1 (2x)
[ Tab from: http://www.guitartabs.cc/tabs/b/billy_joe_royal/down_in_the_boondocks_btab.html ]
A--------------------5--5-5---5--5-5---7--7-7---5--5-5------------------
E--5--5-5---5--5-5---------------------------------------5--5-5---5--5-5


Riff1  

A-----------------------------------
E--6--6-6---6--6-6---6--6-6---6--6-6


Verse2

A--------------------6--6-6---------------------6--6-6---5--5-5---------
E--6--6-6---6--6-6------------6--6-6---6--6-6---------------------3--3-3


A--6--6-6---8--8-8---6--6-6---8--8-8---6--6-6---8--8-8---6--6-6---8--8-8
E-----------------------------------------------------------------------


Chorus2 (2x)


A--------------------6--6-6---6--6-6---8--8-8---6--6-6------------------
E--6--6-6---6--6-6---------------------------------------6--6-6---6--6-6


Outro (2X

A--8--8-8---6--6-6------------------
E--------------------6--6-6---6--6-6


Tabbed by Jeri (a.k.a. PAK52B)

jeri_jacobs@yahoo.de

Comments