Billy Corgan - The Camera Eye Chords & Tabs

 

The Camera Eye Chords & Tabs

Billy Corgan Chords & Tabs

Version: 1 Type: Bass Tab 0 ratings
1 star 2 stars 3 stars 4 stars 5 stars
comments

The Camera Eye Bass Tab

Artist:Billy Corgan
Song:The Camera Eye
Track:3
Album:The Furture Embrace

G|------------|---------------|------------|---------------|
D|----1-------|-------3-------|----1-------|-------3-------|
A|--1---1-3---|---1-3---3-----|--1---1-3---|---1-3---3-----|
E|-1--------3-|-1---------3-1-|-1--------3-|-1---------3-1-|

G|------------|---------------|------------|---------------|
D|----1-------|-------3-------|----1-------|-------3-------|
A|--1---1-3---|---1-3---3-----|--1---1-3---|---1-3---3-----|
E|-1--------3-|-1---------3-1-|-1--------3-|-1---------3-1-|
[ Tab from: http://www.guitartabs.cc/tabs/b/billy_corgan/the_camera_eye_btab.html ]
G|------------|---------------|------------|---------------|
D|----1-------|-------3-------|----1-------|-------3-------|
A|--1---1-3---|---1-3---3-----|--1---1-3---|---1-3---3-----|
E|-1--------3-|-1---------3-1-|-1--------3-|-1---------3-1-|

G|------------|---------------|------------|---------------|
D|----1-------|-------3-------|----1-------|-------3-------|
A|--1---1-3---|---1-3---3-----|--1---1-3---|---1-3---3-----|
E|-1--------3-|-1---------3-1-|-1--------3-|-1---------3-1-|

this song is really good it was pretty easy to tab.Its pretty
much a 100% correct and i think that this tab is the self on
uitar as it is on bass so enjoy.
Comments