Billy Bazz - Devil Of Ice Chords & Tabs

 

Devil Of Ice Chords & Tabs

Billy Bazz Chords & Tabs

Version: 1 Type: Tab 0 ratings
1 star 2 stars 3 stars 4 stars 5 stars
comments

Devil Of Ice Tab

This song is produced by me. (Guitar=Fender Stratcoaster [lead] )

Intro
e||----------------------------------------------
H||----------------------------------------------
G||--5-5-3-3-0-0----0-0-3-3-5-5----7-6-5-5-3-0-0-
D||--5-5-3-3-0-0----0-0-3-3-5-5----7-6-5-5-3-0-0-
A||----------------------------------------------
E||----------------------------------------------

Riff I.
e||--------------------------------------------------------------------
H||--------------------------------------------------------------------
G||--0-0-3-5-------------5-5-3-0-----------------7-5-7-5-7-5-3-3-0-0-0-
D||--0-0-3-5---0-3-5-3---5-5-3-0---5-3-5-3-0-0---7-5-7-5-7-5-3-3-0-0-0-
A||--------------------------------------------------------------------
E||--------------------------------------------------------------------
[ Tab from: http://www.guitartabs.cc/tabs/b/billy_bazz/devil_of_ice_tab.html ]
e||--------------------------------------------------------------------
H||--------------------------------------------------------------------
G||--5-5-7-7-12-12-------15-15-17-17------------------------------7-5-3
D||--5-5-7-7-------12-12-------------15-15-17-17-15-15-12-12-10-8-7-5-3
A||--------------------------------------------------------------------
E||--------------------------------------------------------------------

e||-------
H||-------
G||--0-0--
D||--0-0--
A||-------
E||-------

SOLO
e||---------------------------------15-15-------------
H||------------------------------15-------15----------
G||------------------------15-17-------------17-15-17-
D||--0-3-5-5-7-12-12-15-17----------------------------
A||---------------------------------------------------
E||---------------------------------------------------

e||--------------------------------------------
H||--------------------------------------------
G||--15-17-15-17-15-12-----------------5-3-0-0-
D||--------------------17-15-12-10-8-7-5-3-0-0-
A||--------------------------------------------
E||--------------------------------------------

Comments