Billy - See Through Chords & Tabs

 

See Through Chords & Tabs

Billy Chords & Tabs

Version: 1 Type: Bass Tab 0 ratings
1 star 2 stars 3 stars 4 stars 5 stars
comments

See Through Bass Tab

From: "Mike Ackley" 
Date: Mon, 20 Nov 1995 14:05:00 GMT0BST
Subject: BTAB:  See through... by Billy


BTAB:   "See through..." by "Billy"     

Bass played by Mike Ackley.

Me:  Hippy Mike (phsmaa@leeds.ac.uk)


What a great song.  Great band too......

Anyway, here goes, play and enjoy:



Intro:

|---------------|-----------------|-----------------|---------------|
|---------------|-----------------|-----------------|---------------|
|---------------|-----------------|-----------------|---------------|
|---10--10--10--|--10--10--10--\--|--15--15--15--/--|--12--12--12---|

Play 4x


Bridge:

|--------------|------------------|---------7--------|--------------|
|--------------|------------------|---5--5-----5--5--|--------------|
|--5--5--7--5--|--5-5-5-5--7--5---|------------------|--7----7--6---|
|--------------|------------------|------------------|--------------|

Play 2x


Verse:
[ Tab from: http://www.guitartabs.cc/tabs/b/billy/see_through_btab.html ]
|--------------|-----|------------|----------------------|           
|--------------|-----|------------|---2--2--2--3--3--2---|            
|--5--5--0--3--|--5--|---3--3--3--|----------------------|             
|--------------|-----|------------|----------------------|           

Look into the past......

(Play 2x)


Chorus:

|--------------|-----------------|--------5-----|-------------------|
|--------------|--2--2--2-2-2-\--|--5--5----5---|------7------------|
|--0--0--2--0--|-----------------|--------------|---5-----5---7--5--|
|--------------|-----------------|--------------|-------------------|

I think I can see right through you.....

Play 4x then:

|-------|-------|-------|                                            
|-------|-------|-------|
|-------|---5---|---7---|                                            
|---5---|-------|-------|                                          

You see through me

Play 2x then:

|-------------|---------------------|        
|-------------|---------------------|
|---7--7--7---|--7-7-7-7-(/-5-\-7)--| 
|-------------|---------------------|

Do not stike the notes on the bits in brackets.  ie. after playing the fourth seventh fret, slide down to the fifth then back up to the seventh with out playing the notes.



Right, that's it.  Simple but effective eh?  

Cheers, Mike (phsmaa@leeds.ac.uk)









Comments