Bill Withers - Lean On Me Chords & Tabs

 

Lean On Me Chords & Tabs

Bill Withers Chords & Tabs

Version: 3 Type: Tab 0 ratings
1 star 2 stars 3 stars 4 stars 5 stars
comments

Lean On Me Tab

Lean On Me - Bill Withers
Tabbed by: Kevin Lafortune
Email:kpl67@hotmail.com

Tuning:Normal tuning

Hey guys, this is my first tab, but it should be pretty decent, there are already a
couple of tabs for this song but I thought I would just add my 2 cents to it.  If its
wrong then its wrong, but whatever I think it sounds decent.  Any comments or corrections
you are more then welcome to email me.  Any criticism go for it cause there is always
somebody looking to cut up another persons tab.  Basically I just added a note to each
part based on the power chord for each one (or something like that).  Can't take credit
for the whole tab cause I just took Jim Ashley's tab and added to it.
[ Tab from: http://www.guitartabs.cc/tabs/b/bill_withers/lean_on_me_tab_ver_3.html ]
e|---------------------------------------------------------------------------|
B|---------------------------------------------------------------------------|
G|--------------4--5-----5--4---------------4--4--------------------4--5-----|
D|---5----5--0--2--3-----3--2--0--5----5----2--2--0----5------5--0--23------|
A|---3----3-----------------------3----3---------------3------3--------------|
E|---------------------------------------------------------------------------|

e|---------------------------------------------------------------------------|
B|---------------------------------------------------------------------------|
G|---5--4------------------4-------------------------------------------------|
D|---3--2--0--5----5---0---2--4--5-------------------------------------------|
A|------------3----3----------2--3-------------------------------------------|
E|---------------------------------------------------------------------------|

Well that's about all, just play it through out the whole song.
Comments