Bill Withers - Lean On Me Chords & Tabs

 

Bill Withers Chords & Tabs

Version: 1 Type: Tab 0 ratings
1 star 2 stars 3 stars 4 stars 5 stars
comments

Lean On Me Tab

------------0--1----1--0----------------0---0----e
--1----1--3---------------3--1----1--3---------3-b
-------------------------------------------------g
-------------------------------------------------d
-------------------------------------------------a
-------------------------------------------------e


------------0--1----1--0----------------0--------e
--1----1--3---------------3--1----1--3----0--1---b
-------------------------------------------------g
-------------------------------------------------d
-------------------------------------------------a
-------------------------------------------------e
[ Tab from: http://www.guitartabs.cc/tabs/b/bill_withers/lean_on_me_tab.html ]
Comments