Bill Withers - Lean On Me Chords & Tabs

 

Bill Withers Chords & Tabs

Version: 3 Type: Bass Tab 0 ratings
1 star 2 stars 3 stars 4 stars 5 stars
comments

Lean On Me Bass Tab

Verse
Its The Whole Song Except For The Clapping And Singing Part
[ Tab from: http://www.guitartabs.cc/tabs/b/bill_withers/lean_on_me_btab_ver_3.html ]
G|-------------------------------------------------------------------------|
D|------------2--3---3--2---------------2--2---------2---------------------|
A|--3---3--5---------------5--3---3--5--------5--5------5--3---------------|
E|-------------------------------------------------------------------------|

Clapping And Singing Part
G|-------------------------------------------------------------------------|
D|-------------------------------------------------------------------------|
A|-1-2-3---1-2-3---1-2-3---1-2-3---1-2-3---1-2-3---1-2-3----------7-7-6-5-3|
E|--------------------------------------------------------1-2-3-4----------|
Comments