Bill Withers - Lean On Me Chords & Tabs

 

Bill Withers Chords & Tabs

Version: 2 Type: Bass Tab 0 ratings
1 star 2 stars 3 stars 4 stars 5 stars
comments

Lean On Me Bass Tab

alright, pleas rate this, all the other tabs suck. on double/elec. bass low to up tuning e a d g

[ Tab from: http://www.guitartabs.cc/tabs/b/bill_withers/lean_on_me_btab_ver_2.html ]
g----------0---0---------------------------------------|
d-0--0-2-4-------4-2-0-----0-2-4-4---2-2---4-2-0-------|
a------------------------------------------------------|
e------------------------------------------------------|

g------------0---0--------------------------|
d--0---0-2-4------4-2-0-----0-2-4-----2-0---|
a-----------------------------------4-------|
e-------------------------------------------|


thats it, iuf u have any suggestions, andersfogleman@sbcglobal.net

i love laura
Comments