Bill Withers - Just The Two Of Us Chords & Tabs

 

Just The Two Of Us Chords & Tabs

Bill Withers Chords & Tabs

Version: 1 Type: Bass Tab 0 ratings
1 star 2 stars 3 stars 4 stars 5 stars
comments

Just The Two Of Us Bass Tab

   
Bill Withers - Just The Two Of Us. (Bass Tabs + Chords)
Tabbed By : BassistGal

Rythm Legend:
E = Eighth
Q = Quarter
H = Half

Chords are also in there.

Note: The eighth's in the verses and intro can be played in a Hammer + pull off, aswell 
in the way I've listed.
In the recording its done without them, but alot of Bassists prefer to do so because 
think it sounds better.
Try both ways and judge for yourself.


Intro:
[ Tab from: http://www.guitartabs.cc/tabs/b/bill_withers/just_the_two_of_us_btab.html ]
    Db       C      F        Eb Ab   Db       C      F
    E  E  Q  Q  Q   E  E  Q  Q  Q    E  E  Q  Q  Q   H  H
G|--------------9-|-10-12-10-------|-------------9-|-10----|
D|--11-13-11-10---|----------13----|-11-13-11-10---|-------|
A|----------------|-------------11-|---------------|----8--|
E|----------------|----------------|---------------|-------|

Verse:

    Db    C     F     E Ab  Db    C     F
    E E Q Q Q   E E Q Q Q   E E Q Q Q   H H
G|------------|-----------|-----------|------|
D|----------2-|-3-5-3-----|---------2-|-3----|
A|--4-6-4-3---|-------6---|-4-6-4-3---|------|
E|------------|---------4-|-----------|---1--|

Chorus:

    Db  C     F E Eb Ab  Db  C     F
    Q Q Q Q   Q Q Q  Q   Q Q Q Q   H H
G|----6---5-|----------|---6---5-|------|
D|----------|-3-2-1----|---------|------|
A|--4---3---|----------|-4---3---|------|
E|----------|--------4-|---------|-1-1--|

Please rate the tab if you found it useful.

Gal
Comments