Bill Withers - Aint No Sunshine Chords & Tabs

 

Aint No Sunshine Chords & Tabs

Bill Withers Chords & Tabs

Version: 7 Type: Tab 0 ratings
1 star 2 stars 3 stars 4 stars 5 stars
comments

Aint No Sunshine Tab

-----------------------------------------|
-----1---0-0-----1-----------------------|
-----2---0-0-----2-----------------------|
-----2-----------2-----------------------|
--0------3-----------0------0-3-2----0---|
--------------0---------0-3--------3-----|

-----------------------------------------|
-----1---0-0-----1-----------------------|
-----2---0-0-----2-----------------------|
-----2-----------2-----------------------|
--0------3-----------0------0-3-2----0---|
--------------0---------0-3--------3-----|

-----------------------------------------|
-----1---0-0-----1-----------------------|
-----2---0-0-----2------------5/4---0-2--|
-----2-----------2--------5-7------------|
--0------3-----------0\7-----------------|
--------------0--------------------------|


-----------------------------------------|
-----1---0-0-----1-----------------------|
-----2---0-0-----2------------5/4---0-2--|
-----2-----------2--------5-7------------|
--0------3-----------0\7-----------------|
--------------0--------------------------|

-----------------------------------------------------------------------|
-----1---0-0-----1---------5-5--3--3\5/3--1---1---------1\3/1----------|
-----2---0-0-----2-----5-5------1-----------2-----2------------2-2-0-2-|
-----2-----------2/7-7----------2-----------------2--------------------|
--0------3-------------------------------------------------------------|
--------------0-----------------0-----------------1-1------------------|

-----------------------------------------|
-----1---0-0-----1-----------------------|
-----2---0-0-----2------------5/4---0-2--|
-----2-----------2--------5-7------------|
--0------3-----------0\7-----------------|
--------------0--------------------------|

-----------------------------------------|
-----1---0-0-----1-----------------------|
-----2---0-0-----2------------5/4---0-2--|
-----2-----------2--------5-7------------|
--0------3-----------0\7-----------------|
--------------0--------------------------|

----------------------8-5-----------------|
-----1---0-0-----1---------8-5------------|
-----2---0-0-----2-------------7-5--------|
-----2-----------2-----------------7-5-7--|
--0------3--------------------------------|
--------------0---------------------------|

-----------------------------------------|
-----1---0-0-----1-----------------------|
-----2---0-0-----2------------5/4---0-2--|
-----2-----------2--------5-7------------|
--0------3-----------0\7-----------------|
--------------0--------------------------|

--3-5--3-5--3-5--3-5--3-5--3-5------5-----------|
--3-5--3-5--3-5--3-5--3-5--3-5------5-----------|
------------------------------------5-----------|
------------------------------------7-----------|
--0------------------------0--------7-----------|
------------------------------------5-----------|
[ Tab from: http://www.guitartabs.cc/tabs/b/bill_withers/aint_no_sunshine_tab_ver_7.html ]
----------------------5-8-5-----5---3-3------5---------------------------|
------------------5-8-----------5---3-3------5----------5 bend this note-|
--------------5-7---------------5---4-4------5------5-7-----7p5----------|
----------5-7------------------------------------7---------------7p5h7---|
------5-7--------------------0------------0------------------------------|
--5-8-------------------------------3------------------------------------|

-----5---3-3------5-----|
-----5---3-3------5-----|
-----5---4-4------5-----|
------------------------|
--0------------0--------|
---------3--------------|

----------------------5-8-5-----5---3-3------5---------------------------|
------------------5-8-----------5---3-3------5----------5 bend this note-|
--------------5-7---------------5---4-4------5------5-7-----7p5----------|
----------5-7------------------------------------7---------------7p5h7---|
------5-7--------------------0------------0------------------------------|
--5-8-------------------------------3------------------------------------|


-----------------------------------------|
-----1---0-0-----1-----------------------|
-----2---0-0-----2------------5/4---0-2--|
-----2-----------2--------5-7------------|
--0------3-----------0\7-----------------|
--------------0--------------------------|

-----------------------------------------|
-----1---0-0-----1-----------------------|
-----2---0-0-----2------------5/4---0-2--|
-----2-----------2--------5-7------------|
--0------3-----------0\7-----------------|
--------------0--------------------------|

-----------------------------------------------------------------------|
-----1---0-0-----1---------5-5--3--3\5/3--1---1---------1\3/1----------|
-----2---0-0-----2-----5-5------1-----------2-----2------------2-2-0-2-|
-----2-----------2/7-7----------2-----------------2--------------------|
--0------3-------------------------------------------------------------|
--------------0-----------------0-----------------1-1------------------|

-----------------------------------------|
-----1---0-0-----1-----------------------|
-----2---0-0-----2------------5/4---0-2--|
-----2-----------2--------5-7------------|
--0------3-----------0\7-----------------|
--------------0--------------------------|


----------------------8-5-----------------|
-----1---0-0-----1---------8-5------------|
-----2---0-0-----2-------------7-5--------|
-----2-----------2-----------------7-5-7--|
--0------3--------------------------------|
--------------0---------------------------|

-----------------------------------------|
-----1---0-0-----1-----------------------|
-----2---0-0-----2------------5/4---0-2--|
-----2-----------2--------5-7------------|
--0------3-----------0\7-----------------|
--------------0--------------------------|

--3-5--3-5--3-5--3-5--3-5--3-5------5-----------|
--3-5--3-5--3-5--3-5--3-5--3-5------5-----------|
------------------------------------5-----------|
------------------------------------7-----------|
--0------------------------0--------7-----------|
------------------------------------5-----------|

this might look hard or maybe almost impossible
but its actually verry easy
just take your time and it'll all work out
Comments