Bill Withers - Aint No Sunshine Chords & Tabs

 

Aint No Sunshine Chords & Tabs

Bill Withers Chords & Tabs

Version: 3 Type: Tab 0 ratings
1 star 2 stars 3 stars 4 stars 5 stars
comments

Aint No Sunshine Tab

Ain't no Sunshine
Bill Withers
Tabbed by JJmig(spam)
sfichtner@trevornet.org

normal tuning
verses
[ Tab from: http://www.guitartabs.cc/tabs/b/bill_withers/aint_no_sunshine_tab_ver_3.html ]
Ain't no sunshine when she's gone
e|--------------------------------0--------------------0---------------|
B|--------------------------------1--------0---0-------1---------------|
G|------------------------------2---2------0---0-----2---2-------------|
D|---------------------------------------------------------------------|
A|---------------------------0---------------------0-------------------|
E|---------------------------------------0---3-------------------------|
It's not warm when she's away
e|-----------0--------------0-------------------------------------------|
B|-----------1--------------1---------0---0-----------------------------|
G|---------2---2----------2---2-------0---0-----------------------------|
D|----------------------------------------------------------------------|
A|-------0--------------0-----------------------------------------------|
E|----------------------------------0---3-------------------------------|
Ain't No Sunshine When She's Gone
e|----------0------------------0----------------------------------------|
B|----------1------------------3----------------------------------------|
G|--------2---2--------------0---0--------------------------------------|
D|----------------------------------------------------------------------|
A|------0---------------------------------------------------------------|
E|------------------------0---------------------------------------------|
And She's always gone too long any time she goes away
e|----------0-----------------1-------1-------------0------------------|
B|----------1-----------------3-------3-------------1------------------|
G|--------0---0-------------2---2---2---2---------2---2---0----0-------|
D|-----------------------0--------0-----------------------0----0-------|
A|----------------------------------------------0----------------------|
E|------0------------------------------------------------0---3---------|

Then he says this for a while

And I know I know I know I know...... I know
e|-------0------------------0-------------------------------------------|
B|-------1------------------1-------------------------------------------|
G|-----2---2--------------2---2-----------------------------------------|
D|----------------------------------------------------------------------|
A|--0--------------------0----------------------------------------------|
E|----------------------------------------------------------------------|
Hey I ought to leave the young thing alone
e|----------------0---------------------1------------------------------|
B|----------------1---------------------3------------------------------|
G|--------------2---2-----------------2---2----------------------------|
D|----------------------------------0----------------------------------|
A|------------0--------------------------------------------------------|
E|---------------------------------------------------------------------|
But ain't no sunshine when she's gone
e|---------------1-----------------0-----------------------------------|
B|---------------3-----------------1------0---0------------------------|
G|-------------2---2-------------2---2----0---0------------------------|
D|----------0----------------------------------------------------------|
A|-----------------------------0---------------------------------------|
E|--------------------------------------0---3--------------------------|


That's about it you can probably figure out the rest from that, Bo ya
Comments