Bill Withers - Aint No Sunshine Chords & Tabs

 

Aint No Sunshine Chords & Tabs

Bill Withers Chords & Tabs

Version: 4 Type: Bass Tab 0 ratings
1 star 2 stars 3 stars 4 stars 5 stars
comments

Aint No Sunshine Bass Tab

   
Artist: Bill Withers
Song: Ain't No Sunshine

Tabbed by: Alex Kehoe
www.alexkehoe.co.uk


VERSE ONE
G|----------------------------------------------------|
D|----------------------------------------------------|
A|----------------------------------------------------|
E|-5-----0---3----5-----0---3--4-5-------0----3-----5-|


CHORUS
G|-----------------4---------------------|
D|-------------5-------------------------|
A|3--5---6---7---------7-6-5-------------|
E|----------------------------------3---4|


VERSE TWO
G|----------------------------------------------------|
D|----------------------------------------------------|
A|----------------------------------------------------|
E|-5-----0---3----5-----5---3-4--5-------0----3-----5-|

G|-------------------------------|
D|-------------------------------|
A|-------------------------------|
E|-0---3--4-5-------0----3-----5-|


CHORUS TWO
G|-----------------4------------------------------------|
D|-------------5----------------------------------------|
A|3--5---6---7---------7-6-5----------------------------|
E|----------------------------0-3---4---5---0---3-----5-|

[ Tab from: http://www.guitartabs.cc/tabs/b/bill_withers/aint_no_sunshine_btab_ver_4.html ]
VERSE THREE
G|-------------------------------------------------------------------------------------|
D|-------------------------------------------------------------------------------------|
A|-------------------------------------------------------------------------------------|
E|-5-----0---3---5-------0----3---4--5----0----3-----5-----0----3--4---5---0-----3----5|


CHORUS THREE
G|-----------------4----------------------|
D|--------------5-------------------------|
A|3--5---6---7---------7-6-5--------------|
E|----------------------------------33---4|

G|-------------------------------------------------------------------------------------|
D|-------------------------------------------------------------------------------------|
A|-------------------------------------------------------------------------------------|
E|-5-----0---3---5-------0----3--4---5----0----3-----5-----0----3--4---5---0-----3----5|

G|-------------------------------|
D|-------------------------------|
A|-------------------------------|
E|0----3--4---5--- 0-----3------5|


| /  slide up
| \  slide down
| h  hammer-on 
| p  pull-off 
| ~  vibrato 
| +  harmonic 
| x  Mute note

Tabbed by: Alex Kehoe
www.alexkehoe.co.uk
Comments