Bill Withers - Aint No Sunshine Chords & Tabs

 

Bill Withers Chords & Tabs

Version: 3 Type: Bass Tab 0 ratings
1 star 2 stars 3 stars 4 stars 5 stars
comments

Aint No Sunshine Bass Tab

   
Q=80
 4/4
  
  H    Q  Q    H        S E E   H    Q  Q    H        E E E
|------------|----------------|------------|-----------------|
|------------|----------------|------------|-----------------|
|------------|----------------|------------|------------3-5--|
|-5----0--3--|-5--------0-3-4-|-5----0--3--|-5--------5------|

[ Tab from: http://www.guitartabs.cc/tabs/b/bill_withers/aint_no_sunshine_btab_ver_3.html ]
  Q.   E E E. S S S   Q.   E Q      S E   H    Q  Q   H   H
|----------5--------|--------7------7-5-|-----------|----------|
|------5-7----7-----|------7------------|-----------|----------|
|-7-------------7-6-|-5-----------------|-----------|----------|
|-------------------|-------------------|-5----0--3-|-5--------|

This is how I play it. Simple for people like me who are not bass pros. Enjoy!

***************************************************************************************
* Generated using Power Tab Editor by Brad Larsen - http://powertab.guitarnetwork.org *
***************************************************************************************
Comments