Bill Conti - Gonna Fly Now Chords & Tabs

 

Gonna Fly Now Chords & Tabs

Bill Conti Chords & Tabs

Version: 1 Type: Bass Tab 0 ratings
1 star 2 stars 3 stars 4 stars 5 stars
comments

Gonna Fly Now Bass Tab

Submited By Matt Dohan: i got tyerd of gettin rong tabs form some people so i
desided to make my own right tabs i thaugh i would put a cool classic song on.
(Top:high Bottom:low)
[ Tab from: http://www.guitartabs.cc/tabs/b/bill_conti/gonna_fly_now_btab.html ]
Intro.   
-------------0-0-000-32--
------2-2-222-2----------
-3-333-3-----------------
-------------------------
Part One.
--0-2-2-4----------------
-2--------2--------------
-------------------------
-------------------------
Part Two
-------------------------
-0-0-0------------3-2----
--3-3-2-33-22-00---------
-----------------3-------

Part Three.(We Will Find You..)
-0-2-5-2-----------------
-------------------------
-------------------------
-------------------------
You can Find Out The Order.
Comments