Bile - In League Chords & Tabs

 

In League Chords & Tabs

Bile Chords & Tabs

Version: 3 Type: Tab 0 ratings
1 star 2 stars 3 stars 4 stars 5 stars
comments

In League Tab

Tabbed By. Rob M

This should be right.. im pretty certain it is anyway.

Tuning:
1 - C#
2 - G#
3 - E
4 - B
5 - F#
6 - B

intro part 1: play twice
|-----------------------------------------------|
|-----------------------------------------------|
|-----------------------------------------------|
|---0-0-1-0---0-0-1-0---0-0-1-0---0-0-1-0-------|
|---0-0-1-0---0-0-1-0---0-0-1-0---0-0-1-0-------|
|---0-0-1-0---0-0-1-0---0-0-1-0---0-0-1-0-------|

intro part 2: play twice
|----------------------------------------------------------|
|----------------------------------------------------------|
|------------3b------------3b------------3b------------3b--|
|---0-0-1-0-------0-0-1-0-------0-0-1-0-------0-0-1-0------|
|---0-0-1-0-------0-0-1-0-------0-0-1-0-------0-0-1-0------|
|---0-0-1-0-------0-0-1-0-------0-0-1-0-------0-0-1-0------|


Verse:
|------------------|--------------------------------|
|------------------|--------------------------------|
|------------------|---------------8-8-8-8-8-8-8-8--|
|------------------|---------------x-x-x-x-x-x-x-x--|
|------------------|---------------6-6-6-6-6-6-6-6--|
|---0-0-0-6~-0-----|---0-0-0-6~-0-------------------|

play this 3 times,    and on 4th time play this  (repeat this whole section twice)


[ Tab from: http://www.guitartabs.cc/tabs/b/bile/in_league_tab_ver_3.html ]
Chorus:
|------------------------------------------------------------------------|
|------------------------------------------------------------------------|
|------------------------------------------------------------8h10p8-7h8--|
|---0-0-0-6-0---0-0-0-6-0---0-0-0-6-0---0-0-0-6-0---0-0-0-0--------------|
|---0-0-0-6-0---0-0-0-6-0---0-0-0-6-0---0-0-0-6-0---0-0-0-0--------------|
|---0-0-0-6-0---0-0-0-6-0---0-0-0-6-0---0-0-0-6-0---0-0-0-0--------------|
                                                  PM. . . .
                                                   
|--------------------------------------------------------------------|
|--------------------------------------------------------------------|
|---------------------------------------------------8-8-8-8-8-8-8-8--|
|---0-0-0-6-0---0-0-0-6-0---0-0-0-6-0---0-0-0-6-0---x-x-x-x-x-x-x-x--|
|---0-0-0-6-0---0-0-0-6-0---0-0-0-6-0---0-0-0-6-0---6-6-6-6-6-6-6-6--|
|---0-0-0-6-0---0-0-0-6-0---0-0-0-6-0---0-0-0-6-0--------------------|


|----------------------------------------------------------------------|
|----------------------------------------------------------------------|
|----------------------------------------------------------------------|
|---0-0-1-0--0-0-0---0-0-1-0--0-0-0---0-0-1-0--0-0-0---0-0-1-0--0-0-0--|
|---0-0-1-0--0-0-0---0-0-1-0--0-0-0---0-0-1-0--0-0-0---0-0-1-0--0-0-0--|
|---0-0-1-0--0-0-0---0-0-1-0--0-0-0---0-0-1-0--0-0-0---0-0-1-0--0-0-0--|
           PM. . .            . . .            . . .            . . .
(play this part twice)


|--------------------------------------------------------------------|
|--------------------------------------------------------------------|
|---------------3b---------------3b--------------3b--------------3b--|
|---0-0-1-0---0------0-0-1-0---0------0-0-1-0--0------0-0-1-0--0-----|
|---0-0-1-0---0------0-0-1-0---0------0-0-1-0--0------0-0-1-0--0-----|
|---0-0-1-0---0------0-0-1-0---0------0-0-1-0--0------0-0-1-0--0-----|
            PM.                .               .               .
(Play this twice)


Now repeat the verse, then the chorus, then this:
|--------------------------------------------------|
|--------------------------------------------------|
|--------------------6b------------------------6b--|
|--0-0---1-1---6-6---x-------0-0---1-1---6-6---x---|
|--0-0---1-1---6-6---4b------0-0---1-1---6-6---4---|
|--0-0---1-1---6-6-----------0-0---1-1---6-6-------|
(Play this 4 times)


Then repeat this 8 times:
|-------------------------------|
|-------------------------------|
|---------------------------6b--|
|--0--0-0--1--0-0--6--0-0-0-x---|
|--0--0-0--1--0-0--6--0-0-0-4b--|
|--0--0-0--1--0-0--6--0-0-0-----|
    PM. .     . .     . . .
Comments