Bikini Kill - Rebel Girl Chords & Tabs

 

Rebel Girl Chords & Tabs

Bikini Kill Chords & Tabs

Version: 2 Type: Tab 0 ratings
1 star 2 stars 3 stars 4 stars 5 stars
comments

Rebel Girl Tab

   
****************
ULITIMATE GUITAR NEEDS MORE BIKINI KILL TABS!!! That's why I'm sending in this one.

REBEL GIRL - BIKINI KILL.

Overall, an easy song. Repetitive, fun ... all that good stuff.
I decided to send this in because I don't think the other tab on here has any of the lead in the interludes,
so I'm putting it in. Don't be offended.

PLEASE NOTE that I tab with five strings, because that's how many strings my guitar has 
(the high E broke 48790384790287 times so I leave it off).
You don't need the high E in this song. ALSO, I play this in Drop D,
because it is easier, especially for the leads.
I don't care how the band actually plays it.

ALRIGHT.

INTRO/VERSE
B|---------------------------------|
G|---------------------------------|
D|-8-8-8-8-8-8-8-8-8-8-8-8-8-6-6-7-|
A|-8-8-8-8-8-8-8-8-8-8-8-8-8-6-6-7-|
D|-8-8-8-8-8-8-8-8-8-8-8-8-8-6-6-7-|Repeat as needed.
       pm...................

Pretty straight forward.
[ Tab from: http://www.guitartabs.cc/tabs/b/bikini_kill/rebel_girl_tab_ver_2.html ]
CHORUS
B|---------------------------------|
G|---------------------------------|
D|-8-8-8-8-8-6-6-7-8-8-8-8-8-6-6-7-|
A|-8-8-8-8-8-6-6-7-8-8-8-8-8-6-6-7-|
E|-8-8-8-8-8-6-6-7-8-8-8-8-8-6-6-7-|

I'm pretty sure that's how it goes. That's how I play it to the CD and it sounds fine.

INTERLUDE/LEAD
B|-----6--6-6----6--8--6-|
G|-----6--6-6----6--8--6-|
D|-8-8-6-86-6---86--8--6-|
A|-8-8---8------8--------|
E|-8-8---8------8--------|x2

B|-------------------------------------|
G|-1h3-3-3-1h3-3-3-1h3-3-3-1h3-3-3-1h3-|<
							
													
Comments