Bikini - Kozeli Helyeken Chords & Tabs

 

Kozeli Helyeken Chords & Tabs

Bikini Chords & Tabs

Version: 1 Type: Tab 0 ratings
1 star 2 stars 3 stars 4 stars 5 stars
comments

Kozeli Helyeken Tab

   
artist: Bikni
title: Közeli helyeken
tabbed by binci 
(This song requires Hungarian character set setup on your
computer)

This is my first tab so dont blame me if its off a bit and mail any
corrections to binci@maffia.hu


    Em     D               Am      Em
e|-0-0----2--2---2^3^2----0-0-----0-0---------
b|-0--0---3---3-------3---1--3-0--0--0--3-0---
g|-0---0--2----2-------2--2-------0---0----0--
d|-2------0---------------2-------2---------0-
a|-2----------------------0-------2-----------
e|-0------------------------------0-----------

-0-0----2--2---2^3^2----0-0-----0-0----------|
-0--0---3---3-------3---1--3-0--0--0--3-0----|
-0---0--2----2-------2--2-------0---0----0---|
-2------0---------------2-------2---------0--|
-2----------------------0-------2------------|
-0------------------------------0------------|




e|-----0---0----2---3^2--------0----------0-0--------0---0-
b|----0-0-0------3-----3------1-3-1-0----0-3-3-0----1-1-1--
g|---0---0--------2-----2----2----------0----------0---0---
d|------------0--------------------------------------------
a|--------------------------0---------------------3--------
e|-0----------------------------------0--------------------
	 				

---2--3^2----0-0----2--3^2----0-0----2--2---2^3^2----|
----3----3---0--0---3-----3---0--0---3---3-------3---|
-----2----2--0---0--2------2--0---0--2----2-------2--|
-0-----------2------0---------2------0---------------|
-------------2----------------2----------------------|
-------------0----------------0----------------------|
	

e|-----0---0----2---3^2--------0----------0-0--------0---0-
b|----0-0-0------3-----3------1-3-1-0----0-3-3-0----1-1-1--
g|---0---0--------2-----2----2----------0----------0---0---
d|------------0--------------------------------------------
a|--------------------------0---------------------3--------
e|-0----------------------------------0--------------------
					

---2--3^2----0-0----2--3^2----0-0----2--2---2^3^2----|
----3----3---0--0---3-----3---0--0---3---3-------3---|
-----2----2--0---0--2------2--0---0--2----2-------2--|
-0-----------2------0---------2------0---------------|
-------------2----------------2----------------------|
-------------0----------------0----------------------|
	




	C	D		Am	Em
e|----0--0------2---3^2--------0----------0-0----
b|-----1--1------3-----3------1-3-1-0----0-3-3-0-
g|------0--0------2-----2----2----------0--------
d|------------0----------------------------------
a|--3-----------------------0---------2----------
e|-----------------------------------------------
    				 
[ Tab from: http://www.guitartabs.cc/tabs/b/bikini/kozeli_helyeken_tab.html ]
-----0---0----2---3^2--------0----------0-0----|
----1-1-1------3-----3------1-3-1-0----0-3-3-0-|
---0---0--------2-----2----2----------0--------|
------------0----------------------------------|
--3-----------------------0---------2----------|
-----------------------------------------------|
	

e|----0--0------2---3^2--------0----------0-0----
b|-----1--1------3-----3------1-3-1-0----0-3-3-0-
g|------0--0------2-----2----2----------0--------
d|------------0----------------------------------
a|--3-----------------------0---------2----------
e|-----------------------------------------------
				   	 

-----0---0----2---3^2--------0--------0--------|
----1-1-1------3-----3------1-3-1-0---0--------|
---0---0--------2-----2----2----------0--------|
------------0-------------------------2--------|
--3-----------------------0-----------2--------|
--------------------------------------0--------|
	




e|-----0---0----2---3^2--------0----------0-0--------0---0-
b|----0-0-0------3-----3------1-3-1-0----0-3-3-0----1-1-1--
g|---0---0--------2-----2----2----------0----------0---0---
d|------------0--------------------------------------------
a|--------------------------0---------------------3--------
e|-0----------------------------------0--------------------
	 					

---2--3^2----0-0----2--2--2^3^2----0-0----2--2---2^3^2----|
----3----3---0--0---3---3------3---0--0---3---3-------3---|
-----2----2--0---0--2----2------2--0---0--2----2-------2--|
-0-----------2------0--------------2------0---------------|
-------------2---------------------2----------------------|
-------------0---------------------0----------------------|
	

e|-----0---0----2---3^2--------0----------0-0--------0---0-
b|----0-0-0------3-----3------1-3-1-0----0-3-3-0----1-1-1--
g|---0---0--------2-----2----2----------0----------0---0---
d|------------0--------------------------------------------
a|--------------------------0---------------------3--------
e|-0----------------------------------0--------------------
	 					

---2--3^2----0-0----2--2--2^3^2----0-0----2--2---2^3^2----|
----3----3---0--0---3---3------3---0--0---3---3-------3---|
-----2----2--0---0--2----2------2--0---0--2----2-------2--|
-0-----------2------0--------------2------0---------------|
-------------2---------------------2----------------------|
-------------0---------------------0----------------------|
	




solo
e|--------------------------------------------------------|
b|------------------------------------------------0-1---0-|
g|----------0-2-4-2-0------------2-0-4-2^4^2-0-2------2---|
d|-2--4-5-4-----------4-2--2-4-5--------------------------|


e|-----5-7-7-5---5--12-12-12-10----10-----------5---
b|-5-8---------8----------------12----12--5-7-8---8-

---5-7-8-5--------------|
-8----------8-7^8^7-3-5-|


Köszönet a Bikininek ezért a gyönyörû és méltán népszerû dalért!
Remélem hasznát veszed a tabulatúrának. Nem is túl bonyolult, megéri 
némi energiát fektetni a gyakorlásba. A versszakok alatti bontás 
nagyjából megfelel az eredetinek, a szólóra csak írtam egy lehetséges 
változatot. Bármi hibát találsz benne, javaslatod van vagy kérdeznél, 
írj emilt: binci@maffia.hu
Comments