Bigwig - Who Am I To Say Chords & Tabs

 

Who Am I To Say Chords & Tabs

Bigwig Chords & Tabs

Version: 1 Type: Tab 0 ratings
1 star 2 stars 3 stars 4 stars 5 stars
comments

Who Am I To Say Tab

   
IM BACK good song bad solos
two guitars (a&b)
riffA ^-bend h-hammer on
e|----------------------------------------------------------->
b|--17^-17-15-14-15--15-14----14--17^--15-14-15--14h15h17-17^>
g|-----------------------16---------------------------------->
d|----------------------------------------------------------->
a|----------------------------------------------------------->
e|----------------------------------------------------------->

riffA cont.
e|-----------------17-15-14-15------------------------|
b|--17^--15-14-15---------------17^-15-14-15----------|
g|--------------------------------------------222-777-|
d|--------------------------------------------222-777-|
a|--------------------------------------------000-555-|
e|----------------------------------------------------|

introB %-pause
{     pre chorus       }
e|---------------------|-------------------|
b|---------x3----------|-------------------|
g|----------------7777-|----------------77-|
d|--44444444-7777-7777-|--44444444%%77%%77-|
a|--44444444-7777-5555-|--44444444%%77%%55-|
e|--22222222-5555------|--22222222%%55%%---|

verseA&b x2
e|----------------------------------|
b|----------------------------------|
g|--777777--------------------------|
d|--777777-777777-444444-5555-7777--|
a|--555555-777777-444444-5555-7777--|
e|---------555555-222222-3333-5555--|

prechorusx2 (why dont we......)
[ Tab from: http://www.guitartabs.cc/tabs/b/bigwig/who_am_i_to_say_tab.html ]
chorusA&b x4
e|--------------------------|
b|--------------------------|
g|--77777-------44444-------|
d|--77777-55555-44444-22222-|
a|--55555-55555-22222-22222-|
e|--------33333-------00000-|

riff
versex2
prechorusx2
chorusx4
prechorusx4

soloA (B plays verse) v-vibrato p-pull off h-hammer on ^-bend
e|-------------------------------------------------------------->
b|---------------------------------10^-10-8-7h8p7--------------->
g|-7p9h7p9h7p9h7p9h7p9h7p9-7-7-9v-----------------9-7-9^-9-7---->
d|-----------------------------------------------------------7-->
a|-------------------------------------------------------------->
e|-------------------------------------------------------------->

e|-----------------------------------------------|
b|---------------------10--10-8-7-8-7---7-8-8-10-|
g|------7-9-9^-----7-9----------------9----------|
d|--7h9--------7h9-------------------------------|
a|-----------------------------------------------|
e|-----------------------------------------------|

solo during chorus (play till end of chorus)
e|--------15-17-19-17^-17-15-14h15p15-----------------|
b|--15-17-----------------------------17-15-17^-15----|
g|-------------------------------------------------14-|
d|----------------------------------------------------|
a|----------------------------------------------------|
e|----------------------------------------------------|
riff
A ends on d|-14-| b ends on d|-2-|
                            a|-2-|
                            e|-0-|

easy slow punk song fer yall
L8R
tim robaczewski
Comments