Bigwig - Waste Chords & Tabs

 

Waste Chords & Tabs

Bigwig Chords & Tabs

Version: 1 Type: Tab 0 ratings
1 star 2 stars 3 stars 4 stars 5 stars
comments

Waste Tab

   
WASTE by BIGWIG, Album : Invitation To Tragedy
Tabbed by David Fueller

A=Lead Guitar  B=Rhytm Guitar  A&B=both

b=bend-up to next note         
h=hammer-on
p=pull-off
pm=palm muted

=Intro A	 
E-----------------------------------------17-15-14-15-14----14-------->
B--17b19--17b19--------------15--14h15p14----------------17----17-17-->
G---------------16--14h16p14------------------------------------------>
D--------------------------------------------------------------------->
A--------------------------------------------------------------------->
E--------------------------------------------------------------------->

>Intro A
E--------------------14----14-15--------------------14--|
B-----14-15-17-15-17----17-----------14-15-17-15-17-----|
G--16-----------------------------16--------------------|
D-------------------------------------------------------|
A-------------------------------------------------------|
E-------------------------------------------------------|


=Intro B
E-----------|---------------------------|-----------|---------|
B-----------|---------------------------|-----------|---------|
G--4---7----|---------------------------|--4---7----|--4---7--|
D--4-5-7-7--|--5-5-5-5-5-5-4-4-7-7-7-7--|--4-5-7-7--|--4-5-7--|
A--2-5-5-7--|--5-5-5-5-5-5-4-4-7-7-7-7--|--2-5-5-7--|--2-5-5--|
E----3---5--|--3-3-3-3-3-3-2-2-5-5-5-5--|----3---5--|----3----|
  ---3x----                              ----3x---  

[ Tab from: http://www.guitartabs.cc/tabs/b/bigwig/waste_tab.html ]
=Verse A&B             |---------pm---------|      |-------pm--------|
E-------------------|-------------------------|------------------------->
B-------------------|-------------------------|------------------------->
G--4-4-----7-7------|--4-4-----7--------------|--4-----7---------------->
D--4-4-5-5-7-7-7-7--|--4-4-5-5-7-7-7-7-7-7-7--|--4-5-5-7-7-7-7-7-7-7-7-->
A--2-2-5-5-5-5-7-7--|--2-2-5-5-5-7-7-7-7-7-7--|--2-5-5-5-7-7-7-7-7-7-7-->
E------3-3-----5-5--|------3-3---5-5-5-5-5-5--|----3-3---5-5-5-5-5-5-5-->
  -------4x--------                             -----------3x----------        

>Verse A&B
E---------------------------|
B---------------------------|
G---------------------------|
D--5-5-5-5-5-5-4-4-7-7-7-7--|
A--5-5-5-5-5-5-4-4-7-7-7-7--|
E--3-3-3-3-3-3-2-2-5-5-5-5--|


=Chorus A&B
E---------------------------|---------------------------|
B---------------------------|---------------------------|
G--7-7-7--------------------|---------------------------|
D--7-7-7-7-7-7-5-5-5-5-5-5--|--4-4-4-4-4-4-7-7-7-7-7-7--|
A--5-5-5-7-7-7-5-5-5-5-5-5--|--4-4-4-4-4-4-7-7-7-7-7-7--|
E--------5-5-5-3-3-3-3-3-3--|--2-2-2-2-2-2-5-5-5-5-5-5--|	

Repeat from the beginning!

=Outro A
E---------|
B--15b17--|
G---------|
D---------|
A---------|
E---------|
 -repeató-

=Outro B
E------------------------|----------------------|
B------------------------|----------------------|
G--4-4-----7-7-----------|--4-4-----7-7---------|
D--4-4-5-5-7-7-7-7--7-7--|--4-4-5-5-7-7-7-7--7--|
A--2-2-5-5-5-5-7-7--7-7--|--2-2-5-5-5-5-7-7--7--|
E------3-3-----5-5--5-5--|------3-3-----5-5--5--|
  ----------3x----------
Comments