Bigwig - Still Chords & Tabs

 

Still Chords & Tabs

Bigwig Chords & Tabs

Version: 1 Type: Tab 0 ratings
1 star 2 stars 3 stars 4 stars 5 stars
comments

Still Tab

   
-------------------------------------------------------------------------------
			     STILL - BigWig
-------------------------------------------------------------------------------

Tabbed By:  Lewis Choi:  agnostic@netzero.net

Intro:
     P.M   P.M   P.M   P.M  P.M     P.M   P.M   P.M
e|------------------------------------------------------------|
B|-5-----6-----8-----6-----8---6--1-----3-----5-----3-3-3-3-3-|
G|---5-5---5-5---5-5---5-5---5------0-0---0-0---0-0-0-0-0-0-0-|
D|------------------------------------------------------------|x2
A|------------------------------------------------------------|
E|------------------------------------------------------------|

Guitar #2 (play this right after intro is played 1x):
e|-------|
B|-------|
G|---5---|
D|---5---|Let it ring...
A|---3---|
E|-------|

Play this next while guitar #2 repeats intro x2:
e|----------------------|
B|----------------------|
G|-5---------5--5-------|
D|-5---5-5---5--5---5-5-|x8
A|-3---5-5---3--3---5-5-|
E|-----3-3----------3-3-|

e|--------------------------------------------------|
B|--------------------------------------------------|
G|-----------------------5--4--5--5-5---------------|
D|-3--3-3--3--5--5-5--5--5--4--5--5-5--3--3-3--3--5-|
A|-3--3-3--3--5--5-5--5--3--2--3--3-3--3--3-3--3--5-|
E|-1--1-1--1--3--3-3--3----------------1--1-1--1--3-|
[ Tab from: http://www.guitartabs.cc/tabs/b/bigwig/still_tab.html ]
Solo:
e|----------------------------------------|
B|-1-(let it ring)----1/6-5-(let it ring)-|
G|----------------------------------------|
D|----------------------------------------|
A|----------------------------------------|
E|----------------------------------------|

e|------------------------------------------------------------|
B|------------------------------------------------------------|
G|-12-12-12-12-12-12-10-10-10-10-10-10-9-9-9-9-9-9--7-------5-|
D|------------------------------------------------------------|
A|-10-10-10-10-10-10-8--8--8--8--8--8--7-7-7-7-7-7--5-------3-|
E|------------------------------------------------------------|

e|--------------------------------------------------------------------------|
B|--------------------------------------------------------------------------|
G|-12-12-12-12-12-12-10-10-10-10-10-10-9-9-9-9-9-9--7-------4/5-7-9-7-4-4/5-|
D|--------------------------------------------------------------------------|
A|-10-10-10-10-10-10-8--8--8--8--8--8--7-7-7-7-7-7--5-------2/3-5-7-5-2-2/3-|
E|--------------------------------------------------------------------------|

Solo:
e|-------------------------------------------------------------------|
B|-5/8-8-8-8-6-6-6-5-5-5/8-8-8-8-6-6-6-5-5-5-1-3-5-5-3-3-3-5-5-3-3-3-|
G|-------------------------------------------------------------------|
D|-------------------------------------------------------------------|
A|-------------------------------------------------------------------|
E|-------------------------------------------------------------------|

Ending:
e|-------|
B|-------|
G|---5---|Let it ring...
D|---5---|
A|---3---|
E|-------|

===============================================================================

Comments