Bigwig - Sore Loser Chords & Tabs

 

Sore Loser Chords & Tabs

Bigwig Chords & Tabs

Version: 1 Type: Tab 0 ratings
1 star 2 stars 3 stars 4 stars 5 stars
comments

Sore Loser Tab

   
------------------------------------------------------------------------------- 
SORE LOSER - BigWig 
------------------------------------------------------------------------------- 

By:^oLLy^ 

Intro : 
1x 
e|--------------------------------------------------| 
B|-3---------10-10-10-8-7-10-10-10-8-7-10-10-10-8-7-| 
G|-3-(slide)-7--7--7--7-7-7--7--7--7-7-7--7--7--7-7-| 
D|--------------------------------------------------| 
A|--------------------------------------------------| 
E|--------------------------------------------------| 

Verse1 : 
1x 
e|--------------------------------------------------------------| 
B|--------------------------------------------------------------| 
G|-10-10-10-8-7-10-10-10-8-7-10-----10-10-10-8-7-10-10-10-8-7-7-| 
D|-7--7--7--7-7-7--7--7--7-7-7------7--7--7--7-7-7--7--7--7-7-7-| 
A|--------------------------------------------------------------| 
E|--------------------------------------------------------------| 

Verse2 (Fast Picking): 
6x 1x 
e|----------|-------------7-8-7--------| 
B|-10-7-8-7-|-10-7-8-7-10-------10-8-7-| 
G|----------|--------------------------| 
D|----------|--------------------------| 
A|----------|--------------------------| 
E|----------|--------------------------| 

Verse3 : 
1x 
e|-------------------------7-8-7--------------| 
B|-7-10-8----7-8-10------8-------10-8-10-8-7^-| 
G|-7-7--7-------------------------------------| 
D|--------------------------------------------| 
A|--------------------------------------------| 
E|--------------------------------------------| 

Verse4 : 
2x 
e|--------------------| 
B|--------------------| 
G|-7777---------------| 
D|-7777-7777-55555555-| 
A|-5555-7777-55555555-| 
E|------5555-33333333-| 

Verse5 (Fast Picking) : 
1x 
e|-------------------------------| 
B|-------------------------------| 
G|-77----1212-1212-77----1212-12-| 
D|-77-77-1212-1212-77-77-1212-12-| 
A|-55-77-1010-1010-55-77-1010-10-| 
E|----55--------------55---------| 

Verse6 : 
1x 
e|-----------------------------------| 
B|-----------------------------------| 
G|-7777--------(7)---(7)---(7)---(7)-| 
D|-7777-7777---(5)---(5)---(5)---(5)-| 
A|-5555-7777-5-----5-----5-----5-----| 
E|------5555-3-----3-----3-----3-----| 
[ Tab from: http://www.guitartabs.cc/tabs/b/bigwig/sore_loser_tab.html ]
Verse7 : 
1x 
e|----------------------------------| 
B|----------------------------------| 
G|---------777----------------------| 
D|-444-555-777-777-444-555-77777777-| 
A|-444-555-555-777-444-555-77777777-| 
E|-222-333-----555-222-333-55555555-| 

-Verse4 

Verse8 : 
6x 1x 
e|--------------|---| 
B|-10-10-10-8-7-|-7-| 
G|-7--7--7--7-7-|-7-| 
D|--------------|---| 
A|--------------|---| 
E|--------------|---| 

Verse9 : 
1x 
e|------------------------------| 
B|------------------------------| 
G|-11---------------------------| 
D|-----------------(Pick slide)-| 
A|-9----------------------------| 
E|------------------------------| 

Verse10 (Fast Picking) : 
1x 
e|----------------------------| 
B|----------------------------| 
G|-77---------77-----------12-| 
D|-77-77-5555-77-77-55-5-5-12-| 
A|-55-77-5555-55-77-55-3-3-10-| 
E|----55-3333----55-33-3-3----| 

-Verse6 
-Verse7 
-Verse4 

Solo : 
1x 
e|-------------------------------------------10^---------------------------- 
B|-10-10-10-10-10-10-8-7-10-10-10-10-10-10-8-----10-10-10-10-10-10-10-10-10- 
G|-7--7--7--7--7---------7--7--7--7--7-----------7--7--7--7--7--7--7--7--7-- 
D|-------------------------------------------------------------------------- 
A|-------------------------------------------------------------------------- 
E|-------------------------------------------------------------------------- 

e|-10^-10-10^-10-10-8-7----7-----------------------------10-| 
B|----------------------10---10-8-10--10-8-7-8-10-10-8-7----| 
G|----------------------------------------------------------| 
D|----------------------------------------------------------| 
A|----------------------------------------------------------| 
E|----------------------------------------------------------| 

e|---------------------------------------------------------10----------| 
B|---------------------------------------10-10-10-10-8-7------10-8-7---| 
G|---------------------------------------7--7--7---------7-----------7-| 
D|------------12-12-----------------11^^-----------------------------7-| 
A|----9-10-12-------12-10-9-12-10-9----------------------------------5-| 
E|-10------------------------------------------------------------------| 

Outro (Fast Picking): 
6x 
e|----------| 
B|-7-8-7-10-| 
G|----------| 
D|----------| 
A|----------| 
E|----------| 
1x 
e|-----------| 
B|-7-8-7-----| 
G|-------7-7-| 
D|-------7-7-| 
A|-------5-5-| 
E|-----------|
Comments