Bigwig - Smile Chords & Tabs

 

Smile Chords & Tabs

Bigwig Chords & Tabs

Version: 1 Type: Tab 0 ratings
1 star 2 stars 3 stars 4 stars 5 stars
comments

Smile Tab

Song:   Smile
Artist: Bigwig
Album:  Stay asleep
Tabber: b00h00@hotmail.com

Please e-mail me if you want to use this tab for your website, or something like that...

It's kinda hard to tab the rythm of this song, but I'm sure you'll get it by listening to
the song a bit... So here it is


Intro
E|------------------------------------------------|
A|------------------------------------------------|
D|7-6-7-9-11-7-12-11-14-12-11-7-11-7--------------|
G|x-x-x-x-x--x-x--x--x--x--x--x-x--x--------------|
B|5-4-5-7-9--5-10-9--12-10-9--5-9--5--------------|
E|------------------------------------------------|




Listen to song to find where to palm mute, and where not to...
E|------------3x3-33x3x3-------------------|
B|------------3x3-33x3x3-------------------|
G|777-444-----4x4-44x4x4-------------------|
D|777-444-777-5x5-55x5x5-------------------| X2
A|555-222-777-5x5-55x5x5-------------------|
E|--------555-3x3-33x3x3-------------------|



E|------------------------------------------|
A|------------------------------------------|
D|444-----777-9-11-444-----777--------------|
G|444-555-777-x-x--444-555-777--------------|
B|222-555-555-7-9--222-555-555--------------|
E|----333--------------333------------------|



E|------------------5x555----2------|
A|------------------5x555----3------|
D|444-----777-------6x666----4------|
G|444-555-777-777---5x555--5-4-44-44|
B|222-555-555-777---5x555--5-2-44-44|
E|----333-----555---3x333--3---22-22|



All palmuted except the 2 last notes
E|-----------------|
A|-----------------|
D|444-----777-9-11-|
G|444-555-777-x-x--|
B|222-555-555-7-9--|
E|----333----------|



Listen to song to find where to palm mute, and where not to...
E|----------------------------------------------|
A|----------------------------------------------|
D|444-444---------777-777-777/9-\---------------|
G|444-444-555-555-777-777-777/x-\---------------|
B|222-222-555-555-555-555-555/10\---------------|
E|--------333-333-------------------------------|



E|-------------------------7x7-77------------|
A|-------------------------7x7-77------------|
D|444-----777-9-11-444-----6x6-66------------|
G|444-555-777-x-x--444-555-9x9-99------------|
B|222-555-555-7-9--222-555-9x9-99------------|
E|----333--------------333-7x7-77------------|



E|------------------------------------------------|
A|------------------------------------------------|
D|7-6-7-9-11-7-12-11-14-12-11-7-11-7--------------|
G|x-x-x-x-x--x-x--x--x--x--x--x-x--x--------------|
B|5-4-5-7-9--5-10-9--12-10-9--5-9--5--------------|
E|------------------------------------------------|


[ Tab from: http://www.guitartabs.cc/tabs/b/bigwig/smile_tab.html ]
Listen to song to find where to palm mute, and where not to...
E|------------3x3-33x3x3-------------------|
B|------------3x3-33x3x3-------------------|
G|777-444-----4x4-44x4x4-------------------|
D|777-444-777-5x5-55x5x5-------------------|    
A|555-222-777-5x5-55x5x5-------------------|
E|--------555-3x3-33x3x3-------------------|



Listen to song to find where to palm mute, and where not to...
(Different from the previous part)
E|------------3x3-33x3x3-------------------|
B|------------3x3-33x3x3-------------------|
G|777-444-----4x4-44x4x4-------------------|
D|777-444-777-5x5-55x5x5-------------------|    
A|555-222-777-5x5-55x5x5-------------------|
E|--------555-3x3-33x3x3-------------------|



E|------------------------------------------|
A|------------------------------------------|
D|444-----777-9-11-444-----777--------------|
G|444-555-777-x-x--444-555-777--------------|
B|222-555-555-7-9--222-555-555--------------|
E|----333--------------333------------------|



E|----------------5x555--5x555-------------|
B|----------------5x555--5x555-------------|
G|444-----777-----6x666--6x666-------------|
D|444-555-777-555-5x555--7x777-------------|
A|222-555-555-777-5x555--7x777-------------|
E|----333-----777-3x333--5x555-------------|



E|---------------------------------------4x44x44------------|
B|---------------------------------------4x44x44------------|
G|101010-12-131313-151515--------9-----7-5x55x55------------|
D|x-x-x--x--x-x-x--x-x-x--101010-x-888-x-6x66x66------------|
A|8-8-8--10-111111-131313-101010-7-888-5-6x66x66------------|
E|------------------------8-8-8----666---4x44x44------------|



E|----------------------------------------x44---2-22----------|
B|----------------------------------------x44---3-22----------|
G|101010-12-131313-151515--------9-----7--x55---4-33----------|
D|x-x-x--x--x-x-x--x-x-x--101010-x-888-x-6x66-5-4-44----------|
A|8-8-8--10-111111-131313-101010-7-888-5-6x66-5-2-44---2~ ----|
E|------------------------8-8-8----666---4x44-3-2-22----------|


pickslide


E|---------------------------------------------|
B|---------------------------------------------|
G|444-----777-9-11-444-------------------------|
D|444-555-777-x-x--444-555-5x5-55--------------|
A|222-555-555-7-9--222-555-5x5-55--------------|
E|----333--------------333-7x7-77--------------|



E|------------------------------------------------|
A|------------------------------------------------|
D|7-6-7-9-11-7-12-11-14-12-11-7-11-7--------------|
G|x-x-x-x-x--x-x--x--x--x--x--x-x--x--------------|
B|5-4-5-7-9--5-10-9--12-10-9--5-9--5--------------|
E|------------------------------------------------|
Comments