Big Yellow Taxi - Egg War Chords & Tabs

 

Egg War Chords & Tabs

Big Yellow Taxi Chords & Tabs

Version: 1 Type: Bass Tab 0 ratings
1 star 2 stars 3 stars 4 stars 5 stars
comments

Egg War Bass Tab

G:3-3-4-2-2-3-4--------------------------
D:--------------2-0-2-0-------1-2-3-2-1-3
A:----------------------0-0-1------------
E:---------------------------------------

G:2-2-2-2---------------2-2-2-2-3-3-3-3
D:-------3-3-3-3-2-2-2-2---------------
A:-------------------------------------
E:-------------------------------------
[ Tab from: http://www.guitartabs.cc/tabs/b/big_yellow_taxi/egg_war_btab.html ]
G:3-3-4-2-2-3-4--------------------------
D:--------------2-0-2-0-------1-2-3-2-1-3
A:----------------------0-0-1------------
E:---------------------------------------

G:3-3-3-3-------4-4-2-2-0-0-0-0-0-0-0-0-0
D:-------0-0-2-2--------------------------
A:----------------------------------------
E:----------------------------------------
Comments