Big Wreck - Inhale Chords & Tabs

 

Inhale Chords & Tabs

Big Wreck Chords & Tabs

Version: 1 Type: Tab 0 ratings
1 star 2 stars 3 stars 4 stars 5 stars
comments

Inhale Tab

   
Inhale by Big Wreck
Tab by: Dominic
E-mail: corrosif@canada.com

Tuning : Db
         Bb
         Gb
         Db
         Gb
         B


Pretty close, missing a few parts but should give you a good idea of the song.

Intro

-3-3-2-2-0-------------------------------------
-------------------------3-----3---------------
--------------3-3s2p0-2s4---2s4--4~-2b3b2b3b2p0
-3-3-2-2-0-------------------------------------
--------------3-3s2p0--------------------------
-----------------------------------------------

---------------------------------------|
-5-xx----5~-----xxx-7------------------|
-5-xx-5--5~-----xxx-7-x-7-x-99--\--6~--|
-5-xx-3--5~-----xxx-7-x-5-x-77--\--4~--|
------3---------------x-5-x-77--\--4~--|

Then ...
[ Tab from: http://www.guitartabs.cc/tabs/b/big_wreck/inhale_tab.html ]
--------------------|------|
--------------------|-5-0--|
--------------------|-5-0--|
---4----4----4----4-|-5-0--|
-0-2--0-2--0-2--0-2-|------|
-0-2--0-2--0-2--0-2-|------|

--------------------|--------|
--------------------|--------|
--------------------|--------|
---4----4----4----4-|--------|
-0-2--0-2--0-2--0-2-|---00-0-|
-0-2--0-2--0-2--0-2-|---00-0-|

During the verse...

----------------------
----------------------
--------------------0-(0)(0)
 ---------------------
----------------------
-0-2-0-2-0-2-0-2/3---- 

Interlude Part
                    
-12-14-12-15-12-14-12-15--- 
-12-13-12-15-12-13-12-15--- 
-12-12-12-12-12-12-12-12---   
-12-12-12-12-12-12-12-12---      
---------------------------      
---------------------------      
(Hey !)


Hey plays the intro riff part halfway through the chorus, you can figure out the first
half of the chorus I'm sure.  

Have a good one.
Comments