Big Wig - Carnivore Chords & Tabs

 

Carnivore Chords & Tabs

Big Wig Chords & Tabs

Version: 1 Type: Bass Tab 0 ratings
1 star 2 stars 3 stars 4 stars 5 stars
comments

Carnivore Bass Tab

Titre : Carnivore
Band : Bigwig

#1

|-------------------------------------------------------------|
|-------------------------------------------------------------|
|-----6-6-----5-5---6-6-----8-5-----6-6-----8-5>-5-3-1-0------|
|-3-3-----6-6-----3-----6-6-----3-3-----6-6--------------3----|

#2
[ Tab from: http://www.guitartabs.cc/tabs/b/big_wig/carnivore_btab.html ]
|-------------------------------||-----------|
|-------------------------------||-----------|
|-----------6-6-----------------||--1>--0>---|
|-3-3--6-6-------3-3------------||-----------|

#3

|-------------------------------------------------------------------|
|-------------------------------------------------------------------|
|10-10--6-6------5-5-10-10-6-6----8-5-10-10-6-6-----8-5>-5-3-1-0----|
|------------6-6--------------6-6----------------6-6-------------3--|





Comments