Big Wig - Best Of Me Chords & Tabs

 

Best Of Me Chords & Tabs

Big Wig Chords & Tabs

Version: 1 Type: Bass Tab 0 ratings
1 star 2 stars 3 stars 4 stars 5 stars
comments

Best Of Me Bass Tab

-----------------------------------------------------------------------
Best Of Me
BIG WIG
-----------------------------------------------------------------------

intro 1
G|-4-2-0-------------|
D|-------4-2-0-------|
A|-------------4-2-0-|
E|-------------------|

Riff 1
G|---------------------------------------------|
D|-------4-2-0-0-0-0-----------4-2-0-0-0-0-5-4-|  (2x)
A|-2-2-2-------------2-0-----------------------|
E|-----------------------3-3-3-----------------|

Riff 2
G|-------------------------|
D|---4-2-0-------4-2-0-5-4-|  (2x)
A|-2-------2-0-------------|
E|-------------3-----------|
[ Tab from: http://www.guitartabs.cc/tabs/b/big_wig/best_of_me_btab.html ]
Riff 3
G|-------------|
D|-------------| 
A|-2-------2---|
E|---2-3-5---3-|

Riff 4
G|-----------------------------------------------------------------------------|
D|-------------------5>-4>----------------------------4-4-4----5>------4>------|
A|-5>----------2>-0>----------------------------------------2>----5>-4>------2>|
E|----2-2-2-2-------------5-5-4-5-2-2-2-2-2--3-3-5-5--------------------3>-5>--|

Repete riff 1  (2x)
Repete riff 4 +.........
G|---------------------------------------------------------------|
D|-4---5---4---5---4>----5>----4>----5>-------4>-----------------|
A|---2---5---2---5----2>----5>----2>----5>-4>------------2-2-2-2-|
E|-----------------------------------------------3-3-5-5---------|



Comments