Big Sugar - Turn The Lights On Chords & Tabs

 

Turn The Lights On Chords & Tabs

Big Sugar Chords & Tabs

Version: 1 Type: Tab 0 ratings
1 star 2 stars 3 stars 4 stars 5 stars
comments

Turn The Lights On Tab

Artist: Big Sugar 
Song: Turn the lights on.
Tabber: Samuel Scheideman 
Comments: I don't have it figured out yet but that there sums up all
the except minus the solo 
E-mail addy: klayfeather@hotmail.com 

This is actually a bass part but its kool on an acoustic guitar palm muted,
I kinda think its not very accurate.
                           
 Verse / Chorus Bass Rhythm
e----------------------------------------------------------------
B----------------------------------------------------------------
G----------------------------------------------------------------
D----------------------------------------------------------------
A----------------------3-3-3-1-3-3--1----------------------------
E--3-3-3-1-3-3--1------------------------------------------------


Verse / Chorus Guitar Rhythm
The sun is sinking like a stone....... 
e----------------------------------------------------------------
B----------------------------------------------------------------
G-----------------------------5-----5----------------------------
D----------5-----5------------5-----5----------------------------
A----------5-----5------------3-----3----------------------------
E----------3-----3-----------------------------------------------
[ Tab from: http://www.guitartabs.cc/tabs/b/big_sugar/turn_the_lights_on_tab.html ]
So won't you wake me up......
Bridge type thing
e--------------------------------------------------------
B--5--7--7-----5--7--7-----5--7--7-----5--7--7-----------
G--5/-7--7-----5/-7--7-----5/-7--7-----5/-7--7-----------
D--5/-7--7-----5/-7--7-----5/-7--7-----5/-7--7-----------
A--3/-5--5-----3/-5--5-----3/-5--5-----3/-5--5-----------
E--------------------------------------------------------
After chorus
This is the harmonic after the chorus.
e---------------------------------------
B---------------------------------------
G---------<5>---------------------------
D---------------------------------------
A---------------------------------------
E---------------------------------------


Solo: ????

Lyrics:
I have had my share of fights, 
And some lonely, lonely nights 
Lord, that didn't feel too right 
Gonna reach a higher height 
The sun is sinking like a stone 
And it hurts to be alone 
And you're the finest thing I know 
So won't you wake me up when you get home? 

Turn the lights on baby, 
Before you lie down 
Turn the lights on, 
Turn the lights on baby, 
Before you lie down 
Turn the lights on, 
Turn the lights on baby, 
Let them shine 
Oh baby turn the lights on, 
Turn the lights on baby 
Let them shine 
Oh baby turn the lights on 

And if I'm sleeping like a log 
Just wake me up and I'll be your dog 

Turn the lights on baby 
Before you lie down 
Baby turn the lights on 
Turn the lights on baby 
Before you lie down 
Baby turn the lights on 
Turn the lights on baby 
Before you lie down 
Baby turn the lights on 
Turn the lights on baby 
Let them shine 
Oh baby turn the lights on 
Turn the lights on 
Turn the light on 
Turn the lights on 
Turn the lights on mama 
Let 'em shine 
Oh mama turn the lights on 
Yeah 
Turn the lights on 
Turn them on good baby 
I wanna see you right now 
I wanna see you real good 
Really good 
Why are you so good to me? 

Wake me up when you get home 
Wake me up when you get home 
Turn the lights on baby 
Before you lie down 
Baby turn the lights on 
Turn the lights on baby 
Before you lie down 
Baby turn the lights on 
Turn the lights on baby 
Before you lie down 
Baby turn the lights on 
Turn the lights on mama 
Let them shine 
Oh mama turn the lights on
Comments