Big Sugar - All Hell For A Basement Chords & Tabs

 

All Hell For A Basement Chords & Tabs

Big Sugar Chords & Tabs

Version: 5 Type: Tab 0 ratings
1 star 2 stars 3 stars 4 stars 5 stars
comments

All Hell For A Basement Tab

   
-------------------------------------------------------------------------------
		 ALL HELL FOR A BASEMENT - Big Sugar
-------------------------------------------------------------------------------
Tabbed by:Ben R.
Email: arsonite@rock.com

Tuning:Regular

Intro
e|----------------------------------------------------|
B|----------------------------------------------------|
G|----------------------------------------------------|
D|----------------------------------------------------|
A|-5-----------------------8-8-8h10--8----------------|
E|-3---5-6---8--10~~~------------------10-8-10~~------|
                             
e|-----------------------|   |------------------------|
B|-=---------------------|   |------------------------|
G|-----------------------|   |------------------------|
D|-----------------------|   |------------------------|
A|-8-8-8h10--8-----------|   |-8-8-8h10--8------------|
E|-------------10-8-10---|   |-------------10-8-6~~~~~|

VERSE-> A lot of feedback.


Chorus " I have lost my way"..........
e|----------------------------------------------------|
B|----------------------------------------------------|
G|------3---------------------------------------------|
D|-\\\--1--3-----------------------------8--8--8-8-8--|
A|-\\\-----1--3--3-3-3-3-3-333-3-3-3--8--5--6--6-6-6--|
E|-\\\--------1--1-1-1-1-1-111-1-1-1--6---------------|
                 P.M.+++++++++++++++           P.M.+++

				 " Where they've got"..
e|------------------|           |-  --------------|
B|------------------|           |-----------------|
G|------------------|    Then-> |-----------------|
D|-8-8-888-8-8-8----| 		|----8-8--88------|
A|-6-6-666-6-6-6----|		|-8--5-6--66--8---|
E|------------------|		|-6-----------6---|
  P.M.++++++++++

[ Tab from: http://www.guitartabs.cc/tabs/b/big_sugar/all_hell_for_a_basement_tab_ver_5.html ]
Solo
e|----------------------------------------------------|
B|-----------------------6-6-6h8-6----------6-6-6h8-6-|
G|-----2-3--5--7~~~~---------------7-5-7--------------|
D|-5--------------------------------------------------|
A|----------------------------------------------------|
E|----------------------------------------------------|

e|----------------------------------------------------|
B|---------------------------------------6-6-6h8-6----|
G|-7-5-7~----------2-3--5brp3--7~~~~---------------7--|
D|------------\5--------------------------------------|
A|----------------------------------------------------|
E|----------------------------------------------------|

e|----------------------------------------------------|
B|--------6-6-6h8-6-----------------------------------|
G|-5-7--------------7-5-3~~~~~~~~~~-------------------|
D|----------------------------------------------------|
A|----------------------------------------------------|
E|----------------------------------------------------|


Ending Solo.
e|----------------------------------------------------|
B|-13b-13-11~~~~~~~~---13b-13-11----------------------|
G|------------------------------12~~~~~~~~------------|
D|----------------------------------------------------|
A|----------------------------------------------------|
E|----------------------------------------------------|



e|-------------------------------------------------------|
B|-------------------------------------------------------|
G|-17--15--14-------15--14-------------------------------|
D|------------15-----------17--15--12----------8--10--12-|
A|-------------------------------------10--12------------|
E|-------------------------------------------------------|

It's all here, you just have to piece it all together. 
Rock on!

| /  slide up
| \  slide down
| h  hammer-on
| p  pull-off
| ~  vibrato
| +  harmonic
| x  Mute note
===============================================================================
Comments