Big Star - Feel Chords & Tabs

 

Feel Chords & Tabs

Big Star Chords & Tabs

Version: 2 Type: Tab 0 ratings
1 star 2 stars 3 stars 4 stars 5 stars
comments

Feel Tab

   
#----------------------------------PLEASE NOTE---------------------------------#
#This file is the author's own work and represents their interpretation of the #
#song. You may only use this file for private study, scholarship, or research. #
#------------------------------------------------------------------------------##
From: marc@owlnet.rice.edu (Marc Bennett Hirsh)
Subject: TAB: "Feel" (Big Star)

Here it is. The kickoff from the first album by the forgotten classic
rock and roll band. The Posies did a cover of this on a 7" once
(backed with Chris Bell's apres-Big Star "I Am The Cosmos") and they
got it down cold. The *voices* were the same. Anyway, a few notes:

1) What we have here in this song is a *lot* of guitars. Four, if I
    count right. Because of this, I lose track of some of the guitars
    in various points of the song (e.g., I don't know where the
    acoustic is during the verses). I'm not making stuff up, so if it
    looks like a guitar is missing in my transcription, it may be that
    I can't pick it out. Which may mean that it's not there, but it
    may not.
2) I was torn between two different versions of the opening/main
    riff, but I think that both are actually played. The easy-to-play
    version is on electric and the harder-to-play version is on
    acoustic. I think. BTW, this riff has been used everywhere, from
    just about any blues song (it's a fairly standard tunaround) to
    Buddy Holly's "That'll Be the Day" to Cream's "I'm So Glad" to
    Jesus Jones' "Right Here Right Now."
3) The intro speeds up. I don't know why. But it starts out
    moderately slow the first time through the riff and then picks up
    the second time through. I think it may also speed up at the end,
    but I can't tell. Do what you feel. Pun intended.
4) I'm not entirely sure what the descending bit at the very end of
    the riff is (right before the verses). This may be right or this
    may just be an approximation. It happens to quickly for any major
    damage, anyway, so you might just want to barrel through it.
5) I believe that this is sung by Chris Bell, although I supposed it
    is possible that Alex Chilton's singing the chorus. I also think
    Chilton's playing rhythm and Bell's playing lead guitar. In case
    you care.
6) As with a lot of songs that Chris Bell sings on, I can't figure
    out what the hell he's saying for a bit. I have difficulty with
    the first line. If anybody can help, I'd appreciate it.
7) There is only one verse and one chorus. Lyrically, anyway. They're
    just repeated throughout.
8) I have no idea what kind of effect is on the guitar 3, but it sure
    does sound cool. It makes each chord during the verse sound like
    it's being scooped up, but it's definitely not a whammy-bar-type
    technique. Maybe some sort of wah-wah or flanger?
9) If I could figure out the great backing vocals, I probably still
    wouldn't be able to transcribe them here.
10) I've written out the part for the horns in the solo (not too hard)
    but I've left out the saxophone solo and the electric piano. It's
    mostly doing trills and shouldn't be too complex. I just can't be
    bothered.


"Feel" (Alex Chilton/Chris Bell)
Performed by Big Star
From the album _#1_Record_ (avaiable on a single CD with _Radio_City_)
Transcribed with no permission but with a mission by Marc Hirsh

Notation:
s - sixteenth note
e - eighth note
q - quarter note
h - half note
w - whole note
. - play note for one and a half times the value before it (just like a dot in
     standard notation)
^ - ties two note lengths together
NOTE LENGTHS IN CAPITAL LETTERS MEAN REST FOR THAT VALUE OF TIME!
/ - slide up
\ - slide down
h - hammer-on
p - pull-off


INTRO
(guitar 1 - acoustic, palm muted)
E-------------------------|---------------------------|
B-------------------------|---------------------------|
G-------------------------|---------------------------|
D-------------------------|---------------------------|
A--5--5--5--5--5--5--5--4-|--(4)--4--4--4--4--4--4--3-|
E--3--3--3--3--3--3--3--3-|--(3)--3--3--3--3--3--3--3-|
|  e  e  e  e  e  e  e  e    (e)  e  e  e  e  e  e  e
|
|(guitar 2 - electric, palm muted)
E-------------------------|---------------------------|
B-------------------------|---------------------------|
G--0--0--0--0--0--0--0--0-|--(0)--0--0--0--0--0--0--0-|
D-12-12-12-12-12-12-12-11-|-(11)-11-11-11-11-11-11-10-|
A-------------------------|---------------------------|
E-------------------------|---------------------------|
   e  e  e  e  e  e  e  e    (e)  e  e  e  e  e  e  e

(guitar 1 - acoustic, palm muted)
E--------------------------|----------------------|
B--------------------------|----------------------|
G--------------------------|----------------------|
D--------------------------|----------------------|
A--(3)--3--3--3--3--3--3-2-|-(2)-2-2-2-2--3--4--5-|
E--(3)--3--3--3--3--3--3-3-|-(3)-3-3-3-3--3--3--3-|
|  (e)  e  e  e  e  e  e e   (e) e e e e  e  e  e
|
|(guitar 2 - electric, palm muted)
E--------------------------|----------------------|
B--------------------------|----------------------|
G--(0)--0--0--0--0--0--0-0-|-(0)-0-0-0-0--0--0--0-|
D-(10)-10-10-10-10-10-10-9-|-(9)-9-9-9-9-10-11-12-|
A--------------------------|----------------------|
E--------------------------|----------------------|
|  (e)  e  e  e  e  e  e e   (e) e e e e  e  e  e
|
|(guitar 3 - electric, flanged?)
E--------------------------|----------------------|
B--------------------------|----------------------|
G--------------------------|----------------------|
D--------------------------|-5--------------------|
A--------------------------|----------------------|
E--------------------------|----------------------|
  W                          w

(guitar 1 - acoustic, palm muted)
E---------------------------|---------------------------|
B---------------------------|---------------------------|
G---------------------------|---------------------------|
D---------------------------|---------------------------|
A--(5)--5--5--5--5--5--5--4-|--(4)--4--4--4--4--4--4--3-|
E--(3)--3--3--3--3--3--3--3-|--(3)--3--3--3--3--3--3--3-|
|  (e)  e  e  e  e  e  e  e    (e)  e  e  e  e  e  e  e
|
|(guitar 2 - electric, palm muted)
E---------------------------|---------------------------|
B---------------------------|---------------------------|
G--(0)--0--0--0--0--0--0--0-|--(0)--0--0--0--0--0--0--0-|
D-(12)-12-12-12-12-12-12-11-|-(11)-11-11-11-11-11-11-10-|
A---------------------------|---------------------------|
E---------------------------|---------------------------|
|  (e)  e  e  e  e  e  e  e    (e)  e  e  e  e  e  e  e
|
|(guitar 3 - electric, flanged?)
E---------------------------|---------------------------|
B---------------------------|---------------------------|
G---------------------------|---------------------------|
D---------------------------|---------------------------|
A-5---------------------5-4-|-(4)-------------------4-3-|
E---------------------------|---------------------------|
| h.                    e e   (h.)                  e e
|
|(guitar 4 - electric)
E---------------------------|---------------------------|
B---(10)b12r10--------------|---(10)b12r10--------------|
G---------------------------|---------------------------|
D---------------------------|---------------------------|
A---------------------------|---------------------------|
E---------------------------|---------------------------|
  Q       q  h                Q       q  h

(guitar 1 - acoustic, palm muted)
E--------------------------|-------------------|
B--------------------------|-------------------|
G--------------------------|-----------------2-|
D--------------------------|-----------------2-|
A--(3)--3--3--3--3--3--3-2-|-(2)-2-2-2-2-0---0-|
E--(3)--3--3--3--3--3--3-3-|-(3)-3-3-3-3-3-3---|
|  (e)  e  e  e  e  e  e e   (e) e e e e e e e
|
|(guitar 2 - electric, palm-muted)
E--------------------------|-------------------|
B--------------------------|-------------------|
G--(0)--0--0--0--0--0--0-0-|-(0)-0-0-0-0-0-0-0-|
D-(10)-10-10-10-10-10-10-9-|-(9)-9-9-9-9-7-5-2-|
A--------------------------|-------------------|
E--------------------------|-------------------|
|  (e)  e  e  e  e  e  e e   (e) e e e e e e e
|
|(guitar 3 - electric, flanged?)
E--------------------------|-------------------|
B--------------------------|-------------------|
G--------------------------|-------------------|
D--------------------------|-------------------|
A-(3)-3----------------3-2-|-(2)---------------|
E--------------------------|-----3-----3-2-1-0-|
| (q) h                e e   (e) q.    e e e e
|
|(guitar 4 - electric)
E--------------------------|-------------------|
B---(10)b12(r10)-----------|-(10)--------------|
G--------------------------|-------------------|
D--------------------------|-------------------|
A--------------------------|-------------------|
E--------------------------|-------------------|
  Q       q  (h)              (w)

VERSE
(guitar 2 - electric) (possibly doubled by guitar 1 - acoustic)
E---------------|---------------|-----------------|---------------|
B-------------3-|-(3)-3-3-3-3---|-----------------|---------------|
G-(2)-2-2-2-2-2-|-(2)-2-4-2-4-0-|-(0)-0-0-------2-|-(2)-2-2-2-2-2-|
D-(2)-2-4-2-4-0-|-(0)-0-0-0-0-0-|-(0)-0-2-0-0-0-2-|-(2)-2-4-2-4-2-|
A-(0)-0-0-0-0---|-------------2-|-(2)-2-x-x-x-x-0-|-(0)-0-0-0-0-0-|
E---------------|-------------3-|-(3)-3-3-3-2-0---|---------------|
| (e) e q e q e   (e) e q e q e   (e) e q e e e e   (e) e q e q e
|
|(guitar 3 - electric, flanged?) (possibly doubled by guitar 4)
E-0-------------|---------------|-----------------|-0-------------|
B-x-------------|-3-------------|-----------------|-x-------------|
G-2-------------|-2-------------|-0---------------|-2-------------|
D-2-------------|-0-------------|-0---------------|-2-------------|
A-0-------------|---------------|-x---------------|-0-------------|
E---------------|---------------|-3---------------|---------------|
  w               w               w                 w
  Help me, what are you doin'?                               You're

(guitar 2 - electric) (possibly doubled by guitar 1 - acoustic)
E---------------|---------------|-----------------|---------------|
B-------------3-|-(3)-3-3-3-3---|-----------------|---------------|
G-(2)-2-2-2-2-2-|-(2)-2-4-2-4-0-|-(0)-0-0-------2-|-(2)-2-2-2-2-2-|
D-(2)-2-4-2-4-0-|-(0)-0-0-0-0-0-|-(0)-0-2-0-0-0-2-|-(2)-2-4-2-4-2-|
A-(0)-0-0-0-0---|-------------2-|-(2)-2-x-x-x-x-0-|-(0)-0-0-0-0-0-|
E---------------|-------------3-|-(3)-3-3-3-2-0---|---------------|
| (e) e q e q e   (e) e q e q e   (e) e q e e e e   (e) e q e q e
|
|(guitar 3 - electric, flanged?) (possibly doubled by guitar 4)
E-0-------------|---------------|-----------------|-0-------------|
B-x-------------|-3-------------|-----------------|-x-------------|
G-2-------------|-2-------------|-0---------------|-2-------------|
D-2-------------|-0-------------|-0---------------|-2-------------|
A-0-------------|---------------|-x---------------|-0-------------|
E---------------|---------------|-3---------------|---------------|
  w               w               w                 w
  drivin' me to ruin                                           The

(guitar 2 - electric) (possibly doubled by guitar 1 - acoustic)
E---------------|---------------|-----------------|---------------|
B-------------3-|-(3)-3-3-3-3---|-----------------|---------------|
G-(2)-2-2-2-2-2-|-(2)-2-4-2-4-0-|-(0)-0-0-------2-|-(2)-2-2-2-2-2-|
D-(2)-2-4-2-4-0-|-(0)-0-0-0-0-0-|-(0)-0-2-0-0-0-2-|-(2)-2-4-2-4-2-|
A-(0)-0-0-0-0---|-------------2-|-(2)-2-x-x-x-x-0-|-(0)-0-0-0-0-0-|
E---------------|-------------3-|-(3)-3-3-3-2-0---|---------------|
| (e) e q e q e   (e) e q e q e   (e) e q e e e e   (e) e q e q e
|
|(guitar 3 - electric, flanged?) (possibly doubled by guitar 4)
E-0-------------|---------------|-----------------|-0-------------|
B-x-------------|-3-------------|-----------------|-x-------------|
G-2-------------|-2-------------|-0---------------|-2-------------|
D-2-------------|-0-------------|-0---------------|-2-------------|
A-0-------------|---------------|-x---------------|-0-------------|
E---------------|---------------|-3---------------|---------------|
  w               w               w                 w
  love that you been stealin'                                  Has

(guitar 2 - electric) (possibly doubled by guitar 1 - acoustic)
E---------------|---------------|-----------------|---------------|
B-------------3-|-(3)-3-3-3-3---|-----------------|---------------|
G-(2)-2-2-2-2-2-|-(2)-2-4-2-4-0-|-(0)-0-0-------2-|-(2)-2-2-2-2-2-|
D-(2)-2-4-2-4-0-|-(0)-0-0-0-0-0-|-(0)-0-2-0-0-0-2-|-(2)-2-4-2-4-2-|
A-(0)-0-0-0-0---|-------------2-|-(2)-2-x-x-x-x-0-|-(0)-0-0-0-0-0-|
E---------------|-------------3-|-(3)-3-3-3-2-0---|---------------|
| (e) e q e q e   (e) e q e q e   (e) e q e e e e   (e) e q e q e
|
|(guitar 3 - electric, flanged?) (possibly doubled by guitar 4)
E-0-------------|---------------|-----------------|-0-------------|
B-x-------------|-3-------------|-----------------|-x-------------|
G-2-------------|-2-------------|-0---------------|-2-------------|
D-2-------------|-0-------------|-0---------------|-2-------------|
A-0-------------|---------------|-x---------------|-0-------------|
E---------------|---------------|-3---------------|---------------|
  w               w               w                 w
  given me a feelin'

CHORUS
(guitar 1 - acoustic, palm muted)
E-------------------------|---------------------------|
B-------------------------|---------------------------|
G-------------------------|---------------------------|
D-------------------------|---------------------------|
A--5--5--5--5--5--5--5--4-|--(4)--4--4--4--4--4--4--3-|
E--3--3--3--3--3--3--3--3-|--(3)--3--3--3--3--3--3--3-|
|  e  e  e  e  e  e  e  e    (e)  e  e  e  e  e  e  e
|
|(guitar 2 - electric, palm muted)
E-------------------------|---------------------------|
B-------------------------|---------------------------|
G--0--0--0--0--0--0--0--0-|--(0)--0--0--0--0--0--0--0-|
D-12-12-12-12-12-12-12-11-|-(11)-11-11-11-11-11-11-10-|
A-------------------------|---------------------------|
E-------------------------|---------------------------|
   e  e  e  e  e  e  e  e    (e)  e  e  e  e  e  e  e
   Feel like I'm        dyin'

(guitar 1 - acoustic, palm muted)
E--------------------------|----------------------|
B--------------------------|----------------------|
G--------------------------|----------------------|
D--------------------------|----------------------|
A--(3)--3--3--3--3--3--3-2-|-(2)-2-2-2-2--3--4--5-|
E--(3)--3--3--3--3--3--3-3-|-(3)-3-3-3-3--3--3--3-|
|  (e)  e  e  e  e  e  e e   (e) e e e e  e  e  e
|
|(guitar 2 - electric, palm muted)
E--------------------------|----------------------|
B--------------------------|----------------------|
G--(0)--0--0--0--0--0--0-0-|-(0)-0-0-0-0--0--0--0-|
D-(10)-10-10-10-10-10-10-9-|-(9)-9-9-9-9-10-11-12-|
A--------------------------|----------------------|
E--------------------------|----------------------|
   (e)  e  e  e  e  e  e e   (e) e e e e  e  e  e
   Never gonna live    again

(guitar 1 - acoustic, palm muted)
E---------------------------|---------------------------|
B---------------------------|---------------------------|
G---------------------------|---------------------------|
D---------------------------|---------------------------|
A--(5)--5--5--5--5--5--5--4-|--(4)--4--4--4--4--4--4--3-|
E--(3)--3--3--3--3--3--3--3-|--(3)--3--3--3--3--3--3--3-|
|  (e)  e  e  e  e  e  e  e    (e)  e  e  e  e  e  e  e
|
|(guitar 2 - electric, palm muted)
E---------------------------|---------------------------|
B---------------------------|---------------------------|
G--(0)--0--0--0--0--0--0--0-|--(0)--0--0--0--0--0--0--0-|
D-(12)-12-12-12-12-12-12-11-|-(11)-11-11-11-11-11-11-10-|
A---------------------------|---------------------------|
E---------------------------|---------------------------|
   (e)  e  e  e  e  e  e  e    (e)  e  e  e  e  e  e  e
   You just ain't been    tryin'                     It's

(guitar 1 - acoustic, palm muted)
E--------------------------|-------------------|
B--------------------------|-------------------|
G--------------------------|-----------------2-|
D--------------------------|-----------------2-|
A--(3)--3--3--3--3--3--3-2-|-(2)-2-2-2-2-0---0-|
E--(3)--3--3--3--3--3--3-3-|-(3)-3-3-3-3-3-3---|
|  (e)  e  e  e  e  e  e e   (e) e e e e e e e
|
|(guitar 2 - electric, palm-muted)
E--------------------------|-------------------|
B--------------------------|-------------------|
G--(0)--0--0--0--0--0--0-0-|-(0)-0-0-0-0-0-0-0-|
D-(10)-10-10-10-10-10-10-9-|-(9)-9-9-9-9-7-5-2-|
A--------------------------|-------------------|
E--------------------------|-------------------|
   (e)  e  e  e  e  e  e e   (e) e e e e e e e
   gettin' very near the end

SOLO
(guitar 2 - electric) (possibly doubled by guitar 1 - acoustic)
E-------------------------------|----------------------|
B-----------------------------3-|-(3)-3-3----3-3-------|
G-(2)-----2--2------2--2------2-|-(2)-2-4----2-4----0--|
D-(2)-----2--4------2--4------0-|-(0)-0-0----0-0----0--|
A-(0)-----0--0------0--0--------|-------------------2--|
E-------------------------------|-------------------3--|
| (e)     e  q      e  q      e   (e) e q    e q    e
|
|(guitar 4 - electric)
E---(12)------------------------|----------------------|
B---(12)b14r12-10----10-(13)b15-|-(15)-(15)r13-10-10---|
G-----------------11------------|----------------------|
D-------------------------------|----------------------|
A-------------------------------|----------------------|
E-------------------------------|----------------------|
  e       q  e  e  e  e       e    (h)       e  e  e e

(guitar 2 - electric) (possibly doubled by guitar 1 - acoustic)
E-------------------------------|---------------------|
B-------------------------------|---------------------|
G-(0)-----0--0----------------2-|--(2)--2--2--2--2--2-|
D-(0)-----0--2-----0---0---0--2-|--(2)--2--4--2--4--2-|
A-(2)-----2--x-----x---x---x--0-|--(0)--0--0--0--0--0-|
E-(3)-----3--3-----3---2---0----|---------------------|
| (e)     e  q     e   e   e  e    (e)  e  q  e  q  e
|
|(guitar 4 - electric)
E---(10)------------------------|---------------------|
B---(10)b12r10-8---8-(10)b12r10-|-(10)----10-10----10-|
G----------------9--------------|------11-------11----|
D-------------------------------|---------------------|
A-------------------------------|---------------------|
E-------------------------------|---------------------|
  e       e  e e e e       e  e    (q)  s e.  q  s e.

(guitar 2 - electric) (possibly doubled by guitar 1 - acoustic)
E--------------------|-------------------------------|
B------------------3-|-(3)---3---3-----3---3---------|
G-(2)-2--2--2--2---2-|-(2)---2---4-----2---4------0--|
D-(2)-2--4--2--4---0-|-(0)---0---0-----0---0------0--|
A-(0)-0--0--0--0-----|----------------------------2--|
E--------------------|----------------------------3--|
| (e) e  q  e  q   e   (e)   e   q     e   q      e
|
|(guitar 4 - electric)
E--------------------|-------------------------------|
B-(12)b14-(12)b14r12-|-(13)b15-15-15-(15)r13-10-10---|
G--------------------|-------------------------------|
D--------------------|-------------------------------|
A--------------------|-------------------------------|
E--------------------|-------------------------------|
        q       h  q         q   s e.      e  e  e e
[ Tab from: http://www.guitartabs.cc/tabs/b/big_star/feel_tab_ver_2.html ]
(guitar 2 - electric) (possibly doubled by guitar 1 - acoustic)
E-------------------------------|-------------------|
B-------------------------------|-------------------|
G-(0)-----0--0----------------2-|--(2)-2--2--2-2--2-|
D-(0)-----0--2-----0---0---0--2-|--(2)-2--4--2-4--2-|
A-(2)-----2--x-----x---x---x--0-|--(0)-0--0--0-0--0-|
E-(3)-----3--3-----3---2---0----|-------------------|
| (e)     e  q     e   e   e  e    (e) e  q  e  q  e
|
|(guitar 4 - electric)
E---(10)------------------------|-------------------|
B---(10)b12r10-8---8-(10)b12r10-|-(10)----10-10-----|
G----------------9--------------|------11-------11\-|
D-------------------------------|-------------------|
A-------------------------------|-------------------|
E-------------------------------|-------------------|
  e       e  e e e e       e  e    (q)  s e.  q  q

(guitar 2 - electric, doubled by horns, sax solo underneath)
(possibly doubled by guitar 1 - acoustic, and guitar 4 - electric)
E-----------------|-------------------|
B-----------------|-------------------|
G---------------2-|-(2)-2-----2-4-----|
D-2-2-----2-4---0-|-(0)-0-3-4-0-0---0-|
A-0-0-3-4-0-0-----|-----------------2-|
E-----------------|-------------------|
  e e e e e e e e   (e) e e e e q   e

(guitar 2 - electric, doubled by horns, sax solo underneath)
(possibly doubled by guitar 1 - acoustic, and guitar 4 - electric)
E-------------------|-------------------|
B-------------------|-------------------|
G-----------------2-|-(2)-2-----2-4-----| (repeat 4 times)
D-(2)-2-----2-4---0-|-(0)-0-3-4-0-0---0-|
A-(0)-0-3-4-0-0-----|-----------------2-|
E-------------------|-------------------|
  (e) e e e e e e e   (e) e e e e q   e

(guitar 2 - electric, doubled by horns, sax solo underneath)
(possibly doubled by guitar 1 - acoustic, and guitar 4 - electric)
E-------------------|-----------------|
B-------------------|-----------------|
G-----------------2-|-(2)-2-----2-4---|
D-(2)-2-----2-4---0-|-(0)-0-3-4-0-0---|
A-(0)-0-3-4-0-0-----|-----------------|
E-------------------|-----------------|
  (e) e e e e e e e   (e) e e e e q e

CHORUS
(guitar 1 - acoustic, palm muted)
E-------------------------|---------------------------|
B-------------------------|---------------------------|
G-------------------------|---------------------------|
D-------------------------|---------------------------|
A--5--5--5--5--5--5--5--4-|--(4)--4--4--4--4--4--4--3-|
E--3--3--3--3--3--3--3--3-|--(3)--3--3--3--3--3--3--3-|
|  e  e  e  e  e  e  e  e    (e)  e  e  e  e  e  e  e
|
|(guitar 2 - electric, palm muted)
E-------------------------|---------------------------|
B-------------------------|---------------------------|
G--0--0--0--0--0--0--0--0-|--(0)--0--0--0--0--0--0--0-|
D-12-12-12-12-12-12-12-11-|-(11)-11-11-11-11-11-11-10-|
A-------------------------|---------------------------|
E-------------------------|---------------------------|
   e  e  e  e  e  e  e  e    (e)  e  e  e  e  e  e  e
   Feel like I'm        dyin'

(guitar 1 - acoustic, palm muted)
E--------------------------|----------------------|
B--------------------------|----------------------|
G--------------------------|----------------------|
D--------------------------|----------------------|
A--(3)--3--3--3--3--3--3-2-|-(2)-2-2-2-2--3--4--5-|
E--(3)--3--3--3--3--3--3-3-|-(3)-3-3-3-3--3--3--3-|
|  (e)  e  e  e  e  e  e e   (e) e e e e  e  e  e
|
|(guitar 2 - electric, palm muted)
E--------------------------|----------------------|
B--------------------------|----------------------|
G--(0)--0--0--0--0--0--0-0-|-(0)-0-0-0-0--0--0--0-|
D-(10)-10-10-10-10-10-10-9-|-(9)-9-9-9-9-10-11-12-|
A--------------------------|----------------------|
E--------------------------|----------------------|
   (e)  e  e  e  e  e  e e   (e) e e e e  e  e  e
   Never gonna live    again

(guitar 1 - acoustic, palm muted)
E---------------------------|---------------------------|
B---------------------------|---------------------------|
G---------------------------|---------------------------|
D---------------------------|---------------------------|
A--(5)--5--5--5--5--5--5--4-|--(4)--4--4--4--4--4--4--3-|
E--(3)--3--3--3--3--3--3--3-|--(3)--3--3--3--3--3--3--3-|
|  (e)  e  e  e  e  e  e  e    (e)  e  e  e  e  e  e  e
|
|(guitar 2 - electric, palm muted)
E---------------------------|---------------------------|
B---------------------------|---------------------------|
G--(0)--0--0--0--0--0--0--0-|--(0)--0--0--0--0--0--0--0-|
D-(12)-12-12-12-12-12-12-11-|-(11)-11-11-11-11-11-11-10-|
A---------------------------|---------------------------|
E---------------------------|---------------------------|
|  (e)  e  e  e  e  e  e  e    (e)  e  e  e  e  e  e  e
|
|(guitar 4 - electric)
E---------------------------|----(16)b17-16-------------|
B---------------------------|---------------------------|
G---------------------------|---------------------------|
D---------------------------|---------------------------|
A---------------------------|---------------------------|
E---------------------------|---------------------------|
  W                           Q.       e  h
   You just ain't been    tryin'                     It's

(guitar 1 - acoustic, palm muted)
E--------------------------|-------------------|
B--------------------------|-------------------|
G--------------------------|-----------------2-|
D--------------------------|-----------------2-|
A--(3)--3--3--3--3--3--3-2-|-(2)-2-2-2-2-0---0-|
E--(3)--3--3--3--3--3--3-3-|-(3)-3-3-3-3-3-3---|
|  (e)  e  e  e  e  e  e e   (e) e e e e e e e
|
|(guitar 2 - electric, palm-muted)
E--------------------------|-------------------|
B--------------------------|-------------------|
G--(0)--0--0--0--0--0--0-0-|-(0)-0-0-0-0-0-0-0-|
D-(10)-10-10-10-10-10-10-9-|-(9)-9-9-9-9-7-5-2-|
A--------------------------|-------------------|
E--------------------------|-------------------|
   (e)  e  e  e  e  e  e e   (e) e e e e e e e
   gettin' very near the end

VERSE
(guitar 2 - electric) (possibly doubled by guitar 1 - acoustic)
E---------------|---------------|-----------------|---------------|
B-------------3-|-(3)-3-3-3-3---|-----------------|---------------|
G-(2)-2-2-2-2-2-|-(2)-2-4-2-4-0-|-(0)-0-0-------2-|-(2)-2-2-2-2-2-|
D-(2)-2-4-2-4-0-|-(0)-0-0-0-0-0-|-(0)-0-2-0-0-0-2-|-(2)-2-4-2-4-2-|
A-(0)-0-0-0-0---|-------------2-|-(2)-2-x-x-x-x-0-|-(0)-0-0-0-0-0-|
E---------------|-------------3-|-(3)-3-3-3-2-0---|---------------|
| (e) e q e q e   (e) e q e q e   (e) e q e e e e   (e) e q e q e
|
|(guitar 3 - electric, flanged?) (possibly doubled by guitar 4)
E-0-------------|---------------|-----------------|-0-------------|
B-x-------------|-3-------------|-----------------|-x-------------|
G-2-------------|-2-------------|-0---------------|-2-------------|
D-2-------------|-0-------------|-0---------------|-2-------------|
A-0-------------|---------------|-x---------------|-0-------------|
E---------------|---------------|-3---------------|---------------|
  w               w               w                 w
  Help me, what are you doin'?                               You're

(guitar 2 - electric) (possibly doubled by guitar 1 - acoustic)
E---------------|---------------|-----------------|---------------|
B-------------3-|-(3)-3-3-3-3---|-----------------|---------------|
G-(2)-2-2-2-2-2-|-(2)-2-4-2-4-0-|-(0)-0-0-------2-|-(2)-2-2-2-2-2-|
D-(2)-2-4-2-4-0-|-(0)-0-0-0-0-0-|-(0)-0-2-0-0-0-2-|-(2)-2-4-2-4-2-|
A-(0)-0-0-0-0---|-------------2-|-(2)-2-x-x-x-x-0-|-(0)-0-0-0-0-0-|
E---------------|-------------3-|-(3)-3-3-3-2-0---|---------------|
| (e) e q e q e   (e) e q e q e   (e) e q e e e e   (e) e q e q e
|
|(guitar 3 - electric, flanged?) (possibly doubled by guitar 4)
E-0-------------|---------------|-----------------|-0-------------|
B-x-------------|-3-------------|-----------------|-x-------------|
G-2-------------|-2-------------|-0---------------|-2-------------|
D-2-------------|-0-------------|-0---------------|-2-------------|
A-0-------------|---------------|-x---------------|-0-------------|
E---------------|---------------|-3---------------|---------------|
| w               w               w                 w
|
|(guitar 4 - electric)
E---------------|---------------|-----------------|---------------|
B---------------|---------------|-----------------|---------------|
G---------------|---------------|-----------------|---------------|
D---------------|---------------|-----------------|-2------2-4----|
A---------------|---------------|-----------------|-0--3h4-0-0----|
E---------------|---------------|-----------------|---------------|
  W               W               W                 q. s s e q E
  drivin' me to ruin                                           The

(guitar 2 - electric) (possibly doubled by guitar 1 - acoustic)
E---------------|---------------|-----------------|---------------|
B-------------3-|-(3)-3-3-3-3---|-----------------|---------------|
G-(2)-2-2-2-2-2-|-(2)-2-4-2-4-0-|-(0)-0-0-------2-|-(2)-2-2-2-2-2-|
D-(2)-2-4-2-4-0-|-(0)-0-0-0-0-0-|-(0)-0-2-0-0-0-2-|-(2)-2-4-2-4-2-|
A-(0)-0-0-0-0---|-------------2-|-(2)-2-x-x-x-x-0-|-(0)-0-0-0-0-0-|
E---------------|-------------3-|-(3)-3-3-3-2-0---|---------------|
| (e) e q e q e   (e) e q e q e   (e) e q e e e e   (e) e q e q e
|
|(guitar 3 - electric, flanged?) (possibly doubled by guitar 4)
E-0-------------|---------------|-----------------|-0-------------|
B-x-------------|-3-------------|-----------------|-x-------------|
G-2-------------|-2-------------|-0---------------|-2-------------|
D-2-------------|-0-------------|-0---------------|-2-------------|
A-0-------------|---------------|-x---------------|-0-------------|
E---------------|---------------|-3---------------|---------------|
  w               w               w                 w
  love that you been stealin'                                  Has

(guitar 2 - electric) (possibly doubled by guitar 1 - acoustic)
E---------------|---------------|-----------------|---------------|
B-------------3-|-(3)-3-3-3-3---|-----------------|---------------|
G-(2)-2-2-2-2-2-|-(2)-2-4-2-4-0-|-(0)-0-0-------2-|-(2)-2-2-2-2-2-|
D-(2)-2-4-2-4-0-|-(0)-0-0-0-0-0-|-(0)-0-2-0-0-0-2-|-(2)-2-4-2-4-2-|
A-(0)-0-0-0-0---|-------------2-|-(2)-2-x-x-x-x-0-|-(0)-0-0-0-0-0-|
E---------------|-------------3-|-(3)-3-3-3-2-0---|---------------|
| (e) e q e q e   (e) e q e q e   (e) e q e e e e   (e) e q e q e
|
|(guitar 3 - electric, flanged?) (possibly doubled by guitar 4)
E-0-------------|---------------|-----------------|-0-------------|
B-x-------------|-3-------------|-----------------|-x-------------|
G-2-------------|-2-------------|-0---------------|-2-------------|
D-2-------------|-0-------------|-0---------------|-2-------------|
A-0-------------|---------------|-x---------------|-0-------------|
E---------------|---------------|-3---------------|---------------|
  w               w               w                 w
  given me a feelin'

CHORUS
(guitar 1 - acoustic, palm muted)
E-------------------------|---------------------------|
B-------------------------|---------------------------|
G-------------------------|---------------------------|
D-------------------------|---------------------------|
A--5--5--5--5--5--5--5--4-|--(4)--4--4--4--4--4--4--3-|
E--3--3--3--3--3--3--3--3-|--(3)--3--3--3--3--3--3--3-|
|  e  e  e  e  e  e  e  e    (e)  e  e  e  e  e  e  e
|
|(guitar 2 - electric, palm muted)
E-------------------------|---------------------------|
B-------------------------|---------------------------|
G--0--0--0--0--0--0--0--0-|--(0)--0--0--0--0--0--0--0-|
D-12-12-12-12-12-12-12-11-|-(11)-11-11-11-11-11-11-10-|
A-------------------------|---------------------------|
E-------------------------|---------------------------|
   e  e  e  e  e  e  e  e    (e)  e  e  e  e  e  e  e
   Feel like I'm        dyin'

(guitar 1 - acoustic, palm muted)
E--------------------------|----------------------|
B--------------------------|----------------------|
G--------------------------|----------------------|
D--------------------------|----------------------|
A--(3)--3--3--3--3--3--3-2-|-(2)-2-2-2-2--3--4--5-|
E--(3)--3--3--3--3--3--3-3-|-(3)-3-3-3-3--3--3--3-|
|  (e)  e  e  e  e  e  e e   (e) e e e e  e  e  e
|
|(guitar 2 - electric, palm muted)
E--------------------------|----------------------|
B--------------------------|----------------------|
G--(0)--0--0--0--0--0--0-0-|-(0)-0-0-0-0--0--0--0-|
D-(10)-10-10-10-10-10-10-9-|-(9)-9-9-9-9-10-11-12-|
A--------------------------|----------------------|
E--------------------------|----------------------|
   (e)  e  e  e  e  e  e e   (e) e e e e  e  e  e
   Never gonna live    again

(guitar 1 - acoustic, palm muted)
E---------------------------|---------------------------|
B---------------------------|---------------------------|
G---------------------------|---------------------------|
D---------------------------|---------------------------|
A--(5)--5--5--5--5--5--5--4-|--(4)--4--4--4--4--4--4--3-|
E--(3)--3--3--3--3--3--3--3-|--(3)--3--3--3--3--3--3--3-|
|  (e)  e  e  e  e  e  e  e    (e)  e  e  e  e  e  e  e
|
|(guitar 2 - electric, palm muted)
E---------------------------|---------------------------|
B---------------------------|---------------------------|
G--(0)--0--0--0--0--0--0--0-|--(0)--0--0--0--0--0--0--0-|
D-(12)-12-12-12-12-12-12-11-|-(11)-11-11-11-11-11-11-10-|
A---------------------------|---------------------------|
E---------------------------|---------------------------|
   (e)  e  e  e  e  e  e  e    (e)  e  e  e  e  e  e  e
   You just ain't been    tryin'                     It's

(guitar 1 - acoustic, palm muted)
E--------------------------|----------------------|
B--------------------------|----------------------|
G--------------------------|----------------------|
D--------------------------|----------------------|
A--(3)--3--3--3--3--3--3-2-|-(2)-2-2-2-2--3--4--5-|
E--(3)--3--3--3--3--3--3-3-|-(3)-3-3-3-3--3--3--3-|
|  (e)  e  e  e  e  e  e e   (e) e e e e  e  e  e
|
|(guitar 2 - electric, palm muted)
E--------------------------|----------------------|
B--------------------------|----------------------|
G--(0)--0--0--0--0--0--0-0-|-(0)-0-0-0-0--0--0--0-|
D-(10)-10-10-10-10-10-10-9-|-(9)-9-9-9-9-10-11-12-|
A--------------------------|----------------------|
E--------------------------|----------------------|
   (e)  e  e  e  e  e  e e   (e) e e e e  e  e  e
   gettin' very near the end

(guitar 1 - acoustic, palm muted)
E-------------------------|---------------------------|
B-------------------------|---------------------------|
G-------------------------|---------------------------|
D-------------------------|---------------------------|
A--5--5--5--5--5--5--5--4-|--(4)--4--4--4--4--4--4--3-|
E--3--3--3--3--3--3--3--3-|--(3)--3--3--3--3--3--3--3-|
|  e  e  e  e  e  e  e  e    (e)  e  e  e  e  e  e  e
|
|(guitar 2 - electric, palm muted)
E-------------------------|---------------------------|
B-------------------------|---------------------------|
G--0--0--0--0--0--0--0--0-|--(0)--0--0--0--0--0--0--0-|
D-12-12-12-12-12-12-12-11-|-(11)-11-11-11-11-11-11-10-|
A-------------------------|---------------------------|
E-------------------------|---------------------------|
   e  e  e  e  e  e  e  e    (e)  e  e  e  e  e  e  e
   Feel like I'm        dyin'

(guitar 1 - acoustic, palm muted)
E--------------------------|----------------------|
B--------------------------|----------------------|
G--------------------------|----------------------|
D--------------------------|----------------------|
A--(3)--3--3--3--3--3--3-2-|-(2)-2-2-2-2--3--4--5-|
E--(3)--3--3--3--3--3--3-3-|-(3)-3-3-3-3--3--3--3-|
|  (e)  e  e  e  e  e  e e   (e) e e e e  e  e  e
|
|(guitar 2 - electric, palm muted)
E--------------------------|----------------------|
B--------------------------|----------------------|
G--(0)--0--0--0--0--0--0-0-|-(0)-0-0-0-0--0--0--0-|
D-(10)-10-10-10-10-10-10-9-|-(9)-9-9-9-9-10-11-12-|
A--------------------------|----------------------|
E--------------------------|----------------------|
   (e)  e  e  e  e  e  e e   (e) e e e e  e  e  e

(guitar 1 - acoustic, palm muted)
E---------------------------|---------------------------|
B---------------------------|---------------------------|
G---------------------------|---------------------------|
D---------------------------|---------------------------|
A--(5)--5--5--5--5--5--5--4-|--(4)--4--4--4--4--4--4--3-|
E--(3)--3--3--3--3--3--3--3-|--(3)--3--3--3--3--3--3--3-|
|  (e)  e  e  e  e  e  e  e    (e)  e  e  e  e  e  e  e
|
|(guitar 2 - electric, palm muted)
E---------------------------|---------------------------|
B---------------------------|---------------------------|
G--(0)--0--0--0--0--0--0--0-|--(0)--0--0--0--0--0--0--0-|
D-(12)-12-12-12-12-12-12-11-|-(11)-11-11-11-11-11-11-10-|
A---------------------------|---------------------------|
E---------------------------|---------------------------|
   (e)  e  e  e  e  e  e  e    (e)  e  e  e  e  e  e  e
   Feel like I'm        dyin'

(guitar 1 - acoustic, palm muted)
E--------------------------|----------------------|
B--------------------------|----------------------|
G--------------------------|----------------------|
D--------------------------|----------------------|
A--(3)--3--3--3--3--3--3-2-|-(2)-2-2-2-2--3--4--5-|
E--(3)--3--3--3--3--3--3-3-|-(3)-3-3-3-3--3--3--3-|
|  (e)  e  e  e  e  e  e e   (e) e e e e  e  e  e
|
|(guitar 2 - electric, palm muted)
E--------------------------|----------------------|
B--------------------------|----------------------|
G--(0)--0--0--0--0--0--0-0-|-(0)-0-0-0-0--0--0--0-|
D-(10)-10-10-10-10-10-10-9-|-(9)-9-9-9-9-10-11-12-|
A--------------------------|----------------------|
E--------------------------|----------------------|
   (e)  e  e  e  e  e  e e   (e) e e e e  e  e  e

OUTRO
(guitar 2 - electric) (possibly doubled by other guitars)
E--------------------------------|-------------------------------|
B-----12----12----12----12----12-|----11----11----11----11----11-|
G---0--0--0--0--0--0--0--0--0--0-|--0--0--0--0--0--0--0--0--0--0-|
D-/12----12----12----12----12----|-11----11----11----11----11----|
A--------------------------------|-------------------------------|
E--------------------------------|-------------------------------|
    e  e  s  e  s  e  s  e  s  e    e  e  s  e  s  e  s  e  s  e

(guitar 2 - electric) (possibly doubled by other guitars)
E-------------------------------|----------------------|
B----10----10----10----10----10-|---8---8---8-8-9--10--|
G--0--0--0--0--0--0--0--0--0--0-|-0-0-0-0-0-0-0-0---0--|
D-10----10----10----10----10----|-9---9--9---9-10-11---|
A-------------------------------|----------------------|
E-------------------------------|----------------------|
   e  e  s  e  s  e  s  e  s  e   e e s e s e e  e  e

(guitar 2 - electric) (possibly doubled by other guitars)
E-------------------------------|-------------------------------|
B----12----12----12----12----12-|----11----11----11----11----11-|
G--0--0--0--0--0--0--0--0--0--0-|--0--0--0--0--0--0--0--0--0--0-|
D-12----12----12----12----12----|-11----11----11----11----11----|
A-------------------------------|-------------------------------|
E-------------------------------|-------------------------------|
   e  e  s  e  s  e  s  e  s  e    e  e  s  e  s  e  s  e  s  e

(guitar 2 - electric) (possibly doubled by other guitars)
E-------------------------------|---|
B----10----10----10----10----10-|-8-|
G--0--0--0--0--0--0--0--0--0--0-|-0-|
D-10----10----10----10----10----|-9-|
A-------------------------------|---|
E-------------------------------|---|
   e  e  s  e  s  e  s  e  s  e   w
--
Marc Hirsh (marc@owlnet.rice.edu)

    \ /
     ^ --"It's easy to be nuts. Try being me."
     V     (_The_Fisher_King_)
Comments