Big Soul - Julene Chords & Tabs

 

Julene Chords & Tabs

Big Soul Chords & Tabs

Version: 2 Type: Tab 0 ratings
1 star 2 stars 3 stars 4 stars 5 stars
comments

Julene Tab

#----------------------------------PLEASE NOTE--------------------------------#
#This file is the author's own work and represents their interpretation of the#
#song. You may only use this file for private study, scholarship, or research.#
#-----------------------------------------------------------------------------#

Date: Tue, 01 Jan 1980 02:10:41 +0100
From: St?phane 
Subject: b/big_soul/julene.tab

JULENE
---------------------
Big Soul / Love Crazy (Kelleth Chinn/Caroline Wampole)

Transcribed by Stephane Francois (alain.francois@hol.fr), the famous Big
Soul fan.


E ----------------------------------------|
B ----------------------------------------|
G ----------------------------------------|
D -2p0--4--------------2p0--4-------------|      (p = pull off)
A -2p0--4--------------2p0--4-------------|
E -0----2--------------0----2-------------|

As I was walking       Down the hill (...)

Chorus :

E ----------------------------------------|
B ----------------------------------------|
G ----------------------------------------|
D -4--4--4--6--6--6--9--9--9--12--12--12--|
A -4--4--4--6--6--6--9--9--9--12--12--12--|
E -2--2--2--4--4--4--7--7--7--10--10--10--|

 Julene,

E ----------------------------------------|
B ----------------------------------------|
G ----------------------------------------|
D -4--4--4--6--6--6--9--9--9--12--12--12--|
A -4--4--4--6--6--6--9--9--9--12--12--12--|
E -2--2--2--4--4--4--7--7--7--10--10--10--|

   Do what you wanna do ...
[ Tab from: http://www.guitartabs.cc/tabs/b/big_soul/julene_tab_ver_2.html ]
Bridge (and the end of the song):

E -----------------------|
B ----------------2--4---|
G ----------------2--4---|
D -2p0-4--2p0-4---0--2---|       Several times....
A -2p0-4--2p0-4----------|
E -0---2--0---2----------|


Here are the lyrics:

(Vinyl record sound...)

As I was walking down the hill
Saw a Cadillac just standing still
It had breen fins an ocean wide
The driver said, need a ride?

She didn't live in my neighborhood
Her hair was too short but she looked so good
She sunk the clutch, turned the key
Introduced herself...

        Julene,
        Do what you wanna do
        Julene,
        I wanna ride with you

She got in gear stepped on the gas
Other people saw us  flying past
she flipped the switch, put down the top
When the light turn red, we didn't stop

I said, Julene, are we headed somewhere ?
She said no, but i didn't care
She pushed ahead, drove the engine clean
me in the front seat with...

        Julene,
        Do what you wanna do
        Julene,
        I wanna ride with you

The air turned cool, the sun went down
The lights came up on tinseltown
Julene drove slow into the dark
As we wound our way through griffith park
looking over at the hollywood sign
Me and julene feeling fine
See i don't no Jimmy Dean
I've got my hero...

        Julene,
        Do what you wanna do
        Julene,
        I wanna ride with you

If you're a Big Soul fan, you can write me !!!!
I'm searching for the lyrics of the first album...

Good luck !

alain.francois@hol.fr
Comments