Big Eyed Fish - Studio Version - Dave Matthews Band Chords & Tabs

 

Dave Matthews Band Chords & Tabs

Big Eyed Fish - Studio Version Chords & Tabs

Version: 1 Type: Tab 0 ratings
1 star 2 stars 3 stars 4 stars 5 stars
comments

Dave Matthews Band Tab

   
#----------------------------------PLEASE NOTE---------------------------------#
#This file is the author's own work and represents their interpretation of the #
#song. You may only use this file for private study, scholarship, or research. #
#------------------------------------------------------------------------------#

Dave Matthhews Band
Big Eyed Fish - Studio version
Tabbed by Steve Oliver

This is a tab of DMB's Big Eyed Fish from Busted Stuff. Its pretty simple really once you get past some of the weird
fingerings that Dave does, although this is easy compared to most of his stuff. I have split the song up into parts and
separated the important segments, the violin and sax segments are tabbed out as well, listen for the harmonic though played
by Boyd on his violin, as it will be in the tab.

Intro/verse


-----------------------------7\----------------------|
-----------------------------------------------------|
-----------------------------------------------------|
--9\---5---5-----5-5-4-4-----9\---5---5-----5-5-4-4--|
7-7\-3-3-3-3-----2-2-2-2-2/7-7\-3-3-3-3-----2-2-2-2--|
0-0----------x-x-----------0-0----------x-x----------|


Sax/Violin comes in on the verse after Dave has played the 4 bars the first time, Boyd and LeRoi do something like this but
arranged for guitar, it does appear later in the song. This phrase comes in at different parts during the tune and is 
repeated 6 times on the outro to Bartender before going into the chordal finish which fades off.

[ Tab from: http://www.guitartabs.cc/tabs/b/big_eyed_fish_-_studio_version/dave_matthews_band_tab.html ]
------------------------------------10--12---------------|
-----------------10------10-----12-----------------------|
------9--11--12------12----------------------------------|
--12-----------------------------------------------------|
---------------------------------------------------------|
---------------------------------------------------------|


Chorus

  Em    C/G   G    Bm

----0-0--0-0--3-3---2-2----|
----0-0--0-0--0-0---3-3----|
----0-0--1-1--0-0---4-4----|
----2-2--2-2--0-0---4-4----|
----2-2--3-3--2-2---2-2----|
----0-0--3-3--3-3----------|


  Em    C/G   G    Bm

----0-0--0-0--3-3---2-2----|
----0-0--0-0--0-0---3-3----|
----0-0--1-1--0-0---4-4----|
----2-2--2-2--0-0---4-4----|
----2-2--3-3--2-2---2-2----|
----0-0--3-3--3-3----------|


Bridge

   G     C

----~3----~3----|
----~0----~0----|
----~0----~1----|
----~0----~2----|
----~2----~3----|
----~3----------|

   G     C

----~3----~3----|
----~0----~0----|
----~0----~1----|
----~0----~2----|
----~2----~3----|
----~3----------|

   G     C

----~3----~3----|
----~0----~0----|
----~0----~1----|
----~0----~2----|
----~2----~3----|
----~3----------|

    D        

--~2--2--2--2---~3--3--3--3-----------|
--~3--3--3--3---~3--3--3--3-----------|
--~2--2--2--2---~2--2--2--2-----------|
--~4--4--4--4---~4--4--4--4-----------|
--------------------------------------|
--------------------------------------|


Outro Segue to Bartender (repeats 6 times)

---2--2---3--3---2--2--3--3------------|
---3--3---3--3---3--3--3--3------------|
---2--2---2--2---2--2--2--2------------|
---4--4---4--4---4--4--4--4------------|
---0--0---0--0---0--0--0--0------------|
---------------------------------------|

That is essentailly the entire song, just listen to where the sections are supposed to come in, that covers all the important stuff
really. Enjoy


Comments