Big Dumb Face - Rebel Chords & Tabs

 

Rebel Chords & Tabs

Big Dumb Face Chords & Tabs

Version: 1 Type: Tab 0 ratings
1 star 2 stars 3 stars 4 stars 5 stars
comments

Rebel Tab

Song: Rebel       
Band: BIGdumbFACE       
Album: Duke Lion Fights The Terror!
Tabber: Charles Young (kane691@hotmail.com)
Tuning: Drop D


Strum the first two chords (you know the ones)                         
E||------------------|-------------------|------------------|
B||------------------|-------------------|------------------|
G||------------------|--0----------------|------------------|
D||------------------|--0----------------|------------------|
A||------------------|--0----------------|------------------|
D||------------------|--0----------------|------------------|
                      "Hey...."

                                        Main Riff (strumming isnt too hard)           
-------------------|------------------||-----------------------------|
-------------------|------------------||-----------------------------|
--0----------------|------------------||*----------------------------|
--0----------------|------------------||*--0--0-0-0--0--0--0-0-0--0--|
--0----------------|------------------||---0--0-0-0--0--0--0-0-0--0--|
--0----------------|------------------||---0--0-0-0--0--0--0-0-0--0--|
"hey....."     
                                
                                                          
----------------------------|----------------------------|
----------------------------|----------------------------|
----------------------------|----------------------------|
--3--3-3-3--3--3--3-3-3--3--|--5--5-5-5--5--5--5-5-5--5--|
--3--3-3-3--3--3--3-3-3--3--|--5--5-5-5--5--5--5-5-5--5--|
--3--3-3-3--3--3--3-3-3--3--|--5--5-5-5--5--5--5-5-5--5--|


                             2x      Chorus...                                      
-----------------------------||--------------------|-------------------|
-----------------------------||--------------------|-------------------|
----------------------------*||*-------------------|-------------------|
--0--0-0-0--0--0--0-0-0--0--*||*----------0--------|----------3--------|
--0--0-0-0--0--0--0-0-0--0---||-----------0--------|----------3--------|
--0--0-0-0--0--0--0-0-0--0---||-----------0--------|----------3--------|


                                        x2  Chorus (when drums kick back in)         
-------------------|--------------------||--------------------|
-------------------|--------------------||--------------------|
-------------------|-------------------*||*-------------------|
----------5--------|-------- -0--------*||*----------0--------|
----------5--------|----------0---------||-----------0--------|
----------5--------|----------0---------||-----------0--------|


                                                            x2  
-------------------|-------------------|--------------------||
-------------------|-------------------|--------------------||
-------------------|-------------------|-------------------*||
----------3--------|----------5--------|----------0--------*||
----------3--------|----------5--------|----------0---------||
----------3--------|----------5--------|----------0---------||

[ Tab from: http://www.guitartabs.cc/tabs/b/big_dumb_face/rebel_tab.html ]
                                                           
-----------------------------|----------------------------|
-----------------------------|----------------------------|
*----------------------------|----------------------------|
*--0--0-0-0--0--0--0-0-0--0--|--3--3-3-3--3--3--3-3-3--3--|
---0--0-0-0--0--0--0-0-0--0--|--3--3-3-3--3--3--3-3-3--3--|
---0--0-0-0--0--0--0-0-0--0--|--3--3-3-3--3--3--3-3-3--3--|


                                                          2-                    
----------------------------|-----------------------------||-------------------|
----------------------------|-----------------------------||-------------------|
----------------------------|----------------------------*||-------------------|
--5--5-5-5--5--5--5-5-5--5--|--0--0-0-0--0--0--0-0-0--0--*||----------0--------|
--5--5-5-5--5--5--5-5-5--5--|--0--0-0-0--0--0--0-0-0--0---||----------0--------|
--5--5-5-5--5--5--5-5-5--5--|--0--0-0-0--0--0--0-0-0--0---||----------0--------|


                                                                                
-------------------|-------------------|-------------------|-------------------|
-------------------|-------------------|-------------------|-------------------|
-------------------|-------------------|-------------------|-------------------|
----------3--------|----------5--------|----------0--------|----------0--------|
----------3--------|----------5--------|----------0--------|----------0--------|
----------3--------|----------5--------|----------0--------|----------0--------|


                                                                       
-------------------|-------------------|-------------------|-Here is about---------|
-------------------|-------------------|-------------------|-30 seconds of---------|
-------------------|-------------------|-------------------|-random guitar---------|
----------3--------|----------5--------|----------0--------|-and drum noise--------|
----------3--------|----------5--------|----------0--------|-Go for ya life!-------|
----------3--------|----------5--------|----------0--------|-----------------------|


                                                                                
-------------------|-------------------|-------------------|-------------------|
-------------------|-------------------|-------------------|-------------------|
-------------------|-------------------|-------------------|-------------------|
----------0--------|----------3--------|----------5--------|----------0--------|
----------0--------|----------3--------|----------5--------|----------0--------|
----------0--------|----------3--------|----------5--------|----------0--------|


      The end      
-More random guitar and drum noise---------||
-and a load of hillbillies-----------------||
-------------------------------------------||
-------------------------------------------||
-------------------------------------------||
-------------------------------------------||

I know this looks really simple, i used guitar pro 3 to figure it out. 
and i've played with the song on the cd , and its just about perfect... 
anyway, HaVeAnIcEdAY! :>

BIGdumbFACE Rules!

Charles Young (kane691@hotmail.com)
Comments