Big Dumb Face - Mighty Penus Laser Chords & Tabs

 

Mighty Penus Laser Chords & Tabs

Big Dumb Face Chords & Tabs

Version: 1 Type: Bass Tab 0 ratings
1 star 2 stars 3 stars 4 stars 5 stars
comments

Mighty Penus Laser Bass Tab

BIGdumbFACE - Mighty Penus Laser
Tabbed by Derek (heddup@yahoo.com)
This is the basic idea of the song (unless i'm completely 
out of my mind and can't tell). There are some slight variations.
I think this sounds close to what is on the cd.    
[ Tab from: http://www.guitartabs.cc/tabs/b/big_dumb_face/mighty_penus_laser_btab.html ]
intro/verse
G-----------------------------------|
D--------6-------5-----4--------5---|
A----4-4---4---5-----4---2/3-3----3-|
E------------3-----2----------------|

chorus

G-------9-------9-------8-------8---|
D-----7---7---7---7---6---6---6---6-|
A---7-------7-------6-------6-------|
E-----------------------------------|

outro

G-----
D-----
A---4-  play this note a lot over and over as it fades into other music
E-----
Comments