Big Dumb Face - Duke Lion Chords & Tabs

 

Duke Lion Chords & Tabs

Big Dumb Face Chords & Tabs

Version: 1 Type: Bass Tab 0 ratings
1 star 2 stars 3 stars 4 stars 5 stars
comments

Duke Lion Bass Tab

Big Dumb Face - Duke Lion
Tabbed by Ant (spakman@aol.com)

I think this is a great song by Big Dumb face, 
completely stupid and pretty funny, so I thought I'd 
have a shot at tabbing it out for bass.

Intro

G-----------------------------------------------------------------------
D-11--11-11-11--11-11-11--11-11-11--11-11-11--11-11-11--11-11-11-9-8-6--
A-----------------------------------------------------------------------
E-----------------------------------------------------------------------

Verse

G---------------------------------------------------------------
D-----------------8---8---8---8---------------------------------
A-9---9---9---9-------------------9---9---9---9-----------------
E-------------------------------------------------9---9---9---9-

Verse pt 2

G---------------------------------------------------------------
D--------8--8--9--9--13--13--11--11--11-------------------------
A--9--9----------------------------------12--9--9--9--9---------
E---------------------------------------------------------------
[ Tab from: http://www.guitartabs.cc/tabs/b/big_dumb_face/duke_lion_btab.html ]
Fill

G-----------------------------------------------------------------------
D-11--11-11-11--11-11-11--11-11-11--11-11-11--11-11-11--11-11-11-9-8-6--
A-----------------------------------------------------------------------
E-----------------------------------------------------------------------

Outro

G------------------------------------------------------------------------
D-11--11-11-11--11-11-11--11-11-11--11-11-11--11-11-11--11-11-11-9-8-6---
A----------------------------------------------------------------------9-
E------------------------------------------------------------------------


Now here's the order

Intro      x 1
Verse      x 1
Verse pt 2 x 1
Fill       x 1
Verse      x 1
Verse pt 2 x 1
Fill       x 4
Verse      x 1
Verse pt 2 x 1
Fill       x 1
Verse      x 1    -
Verse pt 2 x 1    - funky guitar bit plays during these parts
Fill       x 1    -
Verse      x 1
Verse pt 2 x 1
Fill       x 7
PAUSE
Verse      x 1
Verse pt 2 x 1
Outro      x 1

Thats it! Thats my first tab so dont be too harsh when rating it ;-)
Comments