Big Dismal - Remember Chords & Tabs

 

Remember Chords & Tabs

Big Dismal Chords & Tabs

Version: 1 Type: Tab 0 ratings
1 star 2 stars 3 stars 4 stars 5 stars
comments

Remember Tab

   
----------------------------------------------------------------------------
			     REMEMBER (I.O.U.) - Big Dismal
----------------------------------------------------------------------------
Tabbed by: Matthew Boyle
Email: highvoltage90567@hotmail.com

Tuning: 1/2 Step Down

Intro + Verses:
[ Tab from: http://www.guitartabs.cc/tabs/b/big_dismal/remember_tab.html ]
      Em7                   C       Am
eb|-------------0----------------------------------------------------------|
Bb|---------3-----3-------3-------1-------1p0------------------------------|
Gb|-------0---0-----0---0-------0-------2-----2p0--------------------------|
Db|-----2-------------2-------2-------2------------------------------------|
Ab|-------------------------3-------0--------------------------------------|
Eb|---0--------------------------------------------------------------------|

Chorus:
(strum chords)

Em7 C Am (x2)


Bridge:
(strum chords)

Em7 - D - Em7 - D - Em7 - D - C - D



Song Progression:
Intro
Verse 1
Chorus
Verse 2
Chorus
Bridge
Verse 1 (only first two lines)
Chorus
Chrous

Chords: ~
Em7 -- 022030
D ---- XX0232
C ---- X32010
Am --- X02210
Comments